Wheatus - Punk Ass Bitch Chords & Tabs

 

Punk Ass Bitch Chords & Tabs

Wheatus Chords & Tabs

Version: 1 Type: Tab 0 ratings
1 star 2 stars 3 stars 4 stars 5 stars
comments

Punk Ass Bitch Tab

---------------------------------PLEASE NOTE---------------------------------#
#This file is the author's own work and represents their interpretation of the #
#song. You may only use this file for private study, scholarship, or research. #
#------------------------------------------------------------------------------#


---------------------------------------------------------------------------
			Punk A** B**** - Wheatus
---------------------------------------------------------------------------

Tabbed by: Blackmetal Dude
Feel free to send any comments to bombefaen666@hotmail.com

Standard tuning
  
  Intro, play three times
|--------------------------------------------------------------------------|
|--------------------------------------------------------------------------|
|9-9-9999-9-9-7-7--7/------------------------------------------------------|
|9-9-9999-9-9-7-7--5/------------------------------------------------------|
|7-7-7777-7-7-5-5--5/------------------------------------------------------|
|--------------------------------------------------------------------------|
                                                                 
  End of intro
|------------------|-------------------------------------------------------|
|------------------|-------------------------------------------------------|
|9-9-9-9-9-9-9-9---|-------------------------------------------------------|
|9-9-9-9-9-9-9-9---|-------------------------------------------------------|
|7-7-7-7-7-7-7-7---|-------------------------------------------------------|
|------------------|-------------------------------------------------------|
 |______PM______| 

  Verse, repeat twice
|--------------------------------------------------------------------------|
|--------------------------------------------------------------------------|
|9-9-9-9-9-9-9-9-----------------------------------------------------------|
|9-9-9-9-9-9-9-9-9-9-9-9-9-9-9-9-11-11-11-11-11-11-11-11-7-7-7-7-7-7-7-7---|
|7-7-7-7-7-7-7-7-7-7-7-7-7-7-7-7-11-11-11-11-11-11-11-11-7-7-7-7-7-7-7-7---|
|----------------7-7-7-7-7-7-7-7-9--9--9--9--9--9--9--9--5-5-5-5-5-5-5-5---|
 |_____________________PALM MUTED_______________________________________| 
                                             
  Bridge 
|--------------------------------------------------------------------------|
|--------------------------------------------------------------------------|
|9--9--9--9----------------------------------------------------------------|
|9--9--9--9--9--9--9--9--11-11-11-11--7--7--7--7---------------------------|
|7--7--7--7--9--9--9--9--11-11-11-11--7--7--7--7---------------------------|
|------------7--7--7--7--9--9--9--9---5--5--5--5---------------------------|
                                                                 
[ Tab from: http://www.guitartabs.cc/tabs/w/wheatus/punk_ass_bitch_tab.html ]
|--------------------------------------------------------------------------|
|--------------------------------------------------------------------------|
|9--9--9--9----------------------------------------------------------------|
|9--9--9--9--9--9--9--9--11-11-11-11-11-11-11-11--7-7-7-7-7-7-7-7----------|
|7--7--7--7--9--9--9--9--11-11-11-11-11-11-11-11--7-7-7-7-7-7-7-7----------|
|------------7--7--7--7--9--9--9--9--9--9--9--9---5-5-5-5-5-5-5-5----------|
                         |__________________PM___________________|           
  Chorus
 Listen to the album, and you figure out the rhytm...
|--------------------------------------------------------------------------|
|--------------------------------------------------------------------------|
|-9-9-99-9-----------------------------------------------------------------|
|-9-9-99-9-9-9-999-9-11--11-11-11-11--7-7-777-7----------------------------|
|-7-7-77-7-9-9-999-9-11--11-11-11-11--7-7-777-7----------------------------|
|----------7-7-777-7-9---9--9--9--9---5-5-555-5----------------------------|
                                                                    


|--------------------------------------------------------------------------|
|--------------------------------------------------------------------------|
|-9-9-999------------------------------------------------------------------|
|-9-9-999--9-9-999---6-6-666--7-x--7-x--7-x--7-----------------------------|
|-7-7-777--9-9-999---6-6-666--7-x--7-x--7-x--7-----------------------------|
|----------7-7-777---4-4-444--5-x--5-x--5-x--5-----------------------------|
                                                  
  
  Verse x2
  Chorus x2                                                                        
  Intro x1
  Verse x4

  Bridge with a second ending
|--------------------------------------------------------------------------|
|--------------------------------------------------------------------------|
|9--9--9--9----------------------------------------------------------------|
|9--9--9--9--9--9--9--9--11-11-11-11--7--7--7--7---------------------------|
|7--7--7--7--9--9--9--9--11-11-11-11--7--7--7--7---------------------------|
|------------7--7--7--7--9--9--9--9---5--5--5--5---------------------------|  

|--------------------------------------------------------------------------|
|--------------------------------------------------------------------------|
|9--9--9--9----------------------------------------------------------------|
|9--9--9--9--9--9--9--9--11-11-11-11--7------------------------------------|
|7--7--7--7--9--9--9--9--11-11-11-11--7------------------------------------|
|------------7--7--7--7--9--9--9--9---5------------------------------------|
 
  Intro x1 

Ends with:
|--------|
|--------|
|--9-----|
|--9-----|
|--7-----|
|--------|
Comments