Wheatus - Little Respect Solo Chords & Tabs

 

Little Respect Solo Chords & Tabs

Wheatus Chords & Tabs

Version: 1 Type: Tab 0 ratings
1 star 2 stars 3 stars 4 stars 5 stars
comments

Little Respect Solo Tab

Here is just the solo/break section from Little Respect..... 
It sounds a little more meaty....


e-----------------------------------
B-----------------------------------
G--12--12--12--10-10-9--9--7-------- X2
D-----------------------------------
A--10--10--10--8--8--7--7--5--------
E-----------------------------------
[ Tab from: http://www.guitartabs.cc/tabs/w/wheatus/little_respect_solo_tab.html ]
e-----------------------------------
B-----------------------------------
G--5---4----------------------------
D-----------------------------------
A--3---2----------------------------
E-----------------------------------

Just mute the other strings and thrash this out.....
I havent put any timing in, but ya get the picture..

Ryan@Waters21.Freeserve.co.uk
Comments