Wheatus - Drummer Boy Chords & Tabs

 

Drummer Boy Chords & Tabs

Wheatus Chords & Tabs

Version: 1 Type: Tab

Drummer Boy Tab

Wheatus
Drummer boy
2nd Album
STANDARD TUNING

well here it is:

e------------------------------------------|
b------------------------------------------|
g---7-x-x----------------------------------|
d---7-x-x--7-x-x--5---x--x-----------------|
a---5-x-x--7-x-x--5---x--x-----------------|
E----------5-x-x--3--x---x-----------------|
[ Tab from: http://www.guitartabs.cc/tabs/w/wheatus/drummer_boy_tab.html ]
e------------------------------------------|
b------------------------------------------|
g-----7------------------------------------|
d--7--7--7---5-----------------------------|
a--5--5--7---5-----------------------------|
E--5-----5---3-----------------------------|

solo:
e------------------------------------------|
b---7---5--4-5--4-2------------------------|
g------------------------------------------|
d------------------------------------------|
a------------------------------------------|
E------------------------------------------|