Wheatus - Deck Chords & Tabs

 

Deck Chords & Tabs

Wheatus Chords & Tabs

Version: 1 Type: Tab 0 ratings
1 star 2 stars 3 stars 4 stars 5 stars
comments

Deck Tab

-----------------------------------------------------------------------------
			     Wheatus - The deck
-----------------------------------------------------------------------------

Album: Hand Over Your Loved Ones

Tabbed by: Nate Sickler
Email: nathansickler@yahoo.com

Tuning: Standard

 ~ - Let note ring
 x - Scratch (lift fingers off slightly)

This is my first tab. Maybe I overcomplicated this simple song by 
putting down FOUR (whoa!) different parts, but it seems right.


Intro:
e|--------------------|
B|--------------------|
G|--------------------| (x4)
D|---66--7---4---6----|
A|--------------------|
E|--------------------|
[ Tab from: http://www.guitartabs.cc/tabs/w/wheatus/deck_tab.html ]
Verse:
e|---------------------|---------------------|------------------------------|
B|---------------------|---------------------|------------------------------|
G|-----------------(x4)|-----------------(x2)|------------------------------|
D|-66--77--4---6-------|-22--44--1---2-------|-66--77--4---6----66--77--4---|
A|---------------------|---------------------|------------------------------|
E|---------------------|---------------------|------------------------------|

Chorus:
e|--------------------------------------------------------------------------|
B|--------------------------------------------------------------------------|
G|--4444--66----------------------------------------------------------------|
D|--4444--66--66--77--2~~~--------------------------------------------------|
A|--2222--44--66--77--2~~~--------------------------------------------------|
E|------------44--55--0~~~--------------------------------------------------|

Outro:
e|--------------------------------------------------------------------------|
B|--------------------------------------------------------------------------|
G|--4444--66----------------------------------------------------------------|
D|--4444--66--66--77--x-----------------------------------------------------|
A|--2222--44--66--77--x-----------------------------------------------------|
E|------------44--55--x-----------------------------------------------------|

Feel free to send any questions/corrections to: nathansickler@yahoo.com
Comments