Whats Up With Chad - Guitar Boingo Chords & Tabs

 

Guitar Boingo Chords & Tabs

Whats Up With Chad Chords & Tabs

Version: 1 Type: Tab 0 ratings
1 star 2 stars 3 stars 4 stars 5 stars
comments

Guitar Boingo Tab

   
#----------------------------------PLEASE NOTE---------------------------------#
#This file is the author's own work and represents their interpretation of the #
#song. You may only use this file for private study, scholarship, or research. #
#------------------------------------------------------------------------------#
#


From co378@freenet.carleton.ca Fri Apr 18 10:35:36 1997
Date: Tue, 18 Mar 1997 17:58:37 -0800
From: Eric St-Cyr 
To: guitar@olga.net
Subject: TAB : 'Guitar Boingo' by 'What's Up With Chad?'

GUITAR BOINGO
by WHAT'S UP WITH CHAD?
Transcribed by Eric St-Cyr (wuwc@geocities.com)

Standard E Tuning.

Riff 1a
|--------0h30h35/|12--------------|
|----------------|----------------|
|----------------|----------------|
|----------------|----------------|
|----------------|----------------|
|----------------|----------------|
 1 + 2 + 3 + 4 +  1 + 2 + 3 + 4 +  

Riff 1b
|----------------|7--9--10~~~-----|
|5--5--5-5/7-789-|------------543-|
|----------------|----------------|
|----------------|----------------|
|----------------|----------------|
|----------------|----------------|
 1 + 2 + 3 + 4 +  1 + 2 + 3 + 4 +  

Riff 1c
|----------------|7h97\44\2-------|
|5--5--5-5/7-789-|----------------|
|----------------|----------------|
|----------------|----------------|
|----------------|----------------|
|----------------|----------------|
 1 + 2 + 3 + 4 +  1 + 2 + 3 + 4 +  

Riff 1d			Riff 1e
|---4--4---5-5-5-|	|---4--4---------|
|5-------5-------|	|5-------3-3-345-|
|----------------|	|----------------|
|----------------|	|----------------|
|----------------|	|----------------|
|----------------|	|----------------|
 1 + 2 + 3 + 4 +  	 1 + 2 + 3 + 4 +  

Riff 1f
|----------------|----------------|
|----------------|----------------|
|----------------|----------------|
|21-21-21-21-----|----------------|
|------------024-|2--2--242-2-----|
|----------------|------------012-|
 1 + 2 + 3 + 4 +  1 + 2 + 3 + 4 +  



Riff 2a			Riff 2b		
|0--0--0-0-0-0-0-|	|0--0--0-00-0-00-|
|0--0--0-0-0-0-0-|	|0--0--0-00-0-00-|
|1--1--1-1/6-6-6\|	|1--1--1-77-7-77-|	
|2--2--2-2/7-7-7\|	|2--2--2-77-7-77-|	
|2--2--2-2/7-7-7\|	|2--2--2-55-5-55-|
|0--0--0-0-0-0-0-|	|0--0--0-00-0-00-|
 1 + 2 + 3 + 4 +   	 1 + 2 + 3 + 4 +		 

Riff 2c
|0--0--00000-000-|3--3--3-33-3-33-|
|0--0--00000-000-|3--3--3-33-3-33-|
|9--9--99999-999-|0--0--0-00-0-00-|
|9--9--99999-999-|0--0--0-00-0-00-|
|7--7--77777-777-|2--2--2-22-2-22-|
|0--0--00000-000-|3--3--3-33-3-33-|
 1 + 2 + 3 + 4 +  1 + 2 + 3 + 4 +

Riff 2d
|0--0--00000-000-|----------------|
|0--0--00000-000-|----------------|
|9--9--99999-999-|----------------|
|9--9--99999-999-|4--6--4-444-444-|
|7--7--77777-777-|4--6--4-444-444-|
|0--0--00000-000-|2--4--2-222-222-|
 1 + 2 + 3 + 4 +  1 + 2 + 3 + 4 +

Riff 2e
|----------------|
|----------------|
|7--6--5---------|
|7--7--7---------|
|5--5--5---------|
|----------------|
 1 + 2 + 3 + 4 +  
[ Tab from: http://www.guitartabs.cc/tabs/w/whats_up_with_chad/guitar_boingo_tab.html ]
Riff 2f
|0---------------|0---------------|
|0---------------|0---------------|
|1---------------|1---------------|
|1---------------|2---------------|
|2---------------|2---------------|
|0---------------|0---------------|
 1 + 2 + 3 + 4 +  1 + 2 + 3 + 4 +

[A]Intro

Guitar 1 (distortion) plays Riff 1a.
At second bar of Riff 1a (when slide hits High E) 
Guitar 2 (distortion) plays Riff 2a 3 times, than riff 2b.

[B]Verse

 Guitar 1 (clean) plays riff 1b twice.

/Guitar 1 (distortion) plays riff 1b.
\Guitar 2 (distortion) plays riff 2c.

/Guitar 1 (distortion) plays riff 1c.
\Guitar 2 (distortion) plays riff 2d.

[C]Chorus

/Guitar 1 (distortion) plays riff 1d 3x.
\Guitar 2 (distortion) plays riff 2a 3x.

/Guitar 1 (distortion) plays riff 1e.
\Guitar 2 (distortion) plays riff 2b.

[B]Verse 2

/Guitar 1 (distortion) plays riff 1b 3x.
\Guitar 2 (distortion) plays riff 2c 3x.

/Guitar 1 (distortion) plays riff 1c.
\Guitar 2 (distortion) plays riff 2d.

[C]Chorus 2

/Guitar 1 (distortion) plays riff 1d 3x.
\Guitar 2 (distortion) plays riff 2a 3x.

/Guitar 1 (distortion) plays riff 1e.
\Guitar 2 (distortion) plays riff 2b.

/Guitar 1 (distortion) plays riff 1d 3x.
\Guitar 2 (distortion) plays riff 2a 3x.

/Guitar 1 (distortion) plays riff 1e.
\Guitar 2 (distortion) plays riff 2b.

 Guitar 2 (distortion) plays riff 2e.

[D]Bridge 

 Guitar 1 (clean) plays riff 1f 4x.

/Guitar 1 (clean) plays riff 1f 4x.
\Guitar 2 (distortion) plays riff 2f 4x.

[E]Solo

 Guitar 2 (distortion) plays riff 2a under solo 8 times.

Guitar 1 (distortion)
|----------------|----------------|7~~~~-7-5-5-----|----------------|
|5~~~~-5-5~~/1010|9~~~~-7-9--7--9-|------------876-|5--5--345-5-87--|
|----------------|----------------|----------------|----------------|
|----------------|----------------|----------------|----------------|
|----------------|----------------|----------------|----------------|
|----------------|----------------|----------------|----------------|
 1 + 2 + 3 + 4 +  1 + 2 + 3 + 4 +  1 + 2 + 3 + 4 +  1 + 2 + 3 + 4 +

|7--7--7/121215--|15-12-----------|----------------|----------------|
|----------------|------15------12|15-12-1512--10--|108-------------|
|----------------|----------------|----------------|--------10--9---|
|----------------|----------------|----------------|----------------|
|----------------|----------------|----------------|----------------|
|----------------|----------------|----------------|----------------|
 1 + 2 + 3 + 4 +  1 + 2 + 3 + 4 +  1 + 2 + 3 + 4 +  1 + 2 + 3 + 4 +

[B]Verse 3

/Guitar 1 (distortion) plays riff 1b 3x.
\Guitar 2 (distortion) plays riff 2c 3x.

/Guitar 1 (distortion) plays riff 1c.
\Guitar 2 (distortion) plays riff 2d.

[C]Chorus 3

/Guitar 1 (distortion) plays riff 1d 3x.
\Guitar 2 (distortion) plays riff 2a 3x.

/Guitar 1 (distortion) plays riff 1e.
\Guitar 2 (distortion) plays riff 2b.

/Guitar 1 (distortion) plays riff 1d 3x.
\Guitar 2 (distortion) plays riff 2a 3x.

/Guitar 1 (distortion) plays riff 1e.
\Guitar 2 (distortion) plays riff 2b.

 Guitar 2 (distortion) plays riff 2e twice.


[G]Outro

 Guitar 2 (distortion) plays riff 2c twice.

/Guitar 1 (distortion) plays riff 1b twice.
\Guitar 2 (distortion) plays riff 2c twice.

Both Guitars end on and E chord.
Comments