Whatever You Want - Status Quo Chords & Tabs

 

Status Quo Chords & Tabs

Whatever You Want Chords & Tabs

Version: 1 Type: Tab 0 ratings
1 star 2 stars 3 stars 4 stars 5 stars
comments

Status Quo Tab

   
This is the guitar solo from Satus Quo`s - Whatever you want.
If you have questions? Send me a mail: std8517@et.fh-osnabrueck.de

 F
|--------------------------------------------------------------------13-------------13-----------------------------------|
|---------------------------------------------------------------13---------------13--------------------------------------|
|-------------13-------13------------13-------13--15(17)------------15(17)---------15(17)15--13----------------|
|---13--15-------15-------13--15-------15-------------------------------------------------------------15------------|
|--------------------------------------------------------------------------------------------------------------------------|
|--------------------------------------------------------------------------------------------------------------------------|

[ Tab from: http://www.guitartabs.cc/tabs/w/whatever_you_want/status_quo_tab.html ]
|-----------------------------------------------------------15---------------15------------------------------------------|
|------------------------------------------------------15---------------15-----------------------------------------------|
|-----------8--8---------8--8---------10--17(19)-----------17(19)----------17(19)17--15--12--------------------|
|--8--10---------8--10-------8--10------------------------------------------------------------------------------------|
|--------------------------------------------------------------------------------------------------------------------------|
|--------------------------------------------------------------------------------------------------------------------------|

 C                                                  F
|--------8----------------------------------------------------------------------------------------------------------------|
|-----8----11--10--8------------------------------------6--------------------------------------------------------------|
|--9--------------------10--9--10--------------------6-5--------------------------------------------------------------|
|------------------------------------10--------6--7---------------------------------------------------------------------|
|----------------------------------------8--8----------------------------------------------------------------------------|
|-------------------------------------------------------------------------------------------------------------------------|

    E                                                                         A
|----------------------13--12--10--------------------------------------------------------------------------|
|---------------------------------------13(15)13---12---15(17)--15(17)--------------------------------|
|---------12--14--------------------------------------------------------------------------------------------|
|----14------------------------------------------------------------------------------------------------------|
|-------------------------------------------------------------------------------------------------------------|
|-------------------------------------------------------------------------------------------------------------|
Comments