Whamertrons The - Never The Same Chords & Tabs

 

Never The Same Chords & Tabs

Whamertrons The Chords & Tabs

Version: 1 Type: Tab 0 ratings
1 star 2 stars 3 stars 4 stars 5 stars
comments

Never The Same Tab

   
Song : - Never The Same
Band : - The Whamertrons
Tabbed By : - wolverine_kenshee@yahoo.com OR worth_devil@hotmail.com
Tuning : - Standard (e B G D A e)

Intro : - Guitar I(Clean Electric Guitar)
e||-----------------------------------------------------||
B||-----------------------------------------------------||
G||-----------------------------------------------------||
D||-----------------------------------------------------||
A||-0h2--2--2--0-2--0-2--2-0--0h2--2--2--0-2--0-2--2-0--||
E||-0----0--0--0-0--0-0--0-0--3----3--3--3-3--3-3--3-3--||

Repeat Above Intro (But this time with distortion on second guitar)

Verse 1 : (Same as above but now palm-muted)

Then, here guitar I plays this with High Octave Distortion.
e||-----------------------------------------------------------------||
B||----------------12---------------------------12------------------||
G||-12b-12b-13brbr----13b-12~~~--12b-12b-13brbr----13-12-13-12~~~---||
D||-----------------------------------------------------------------||
A||-----------------------------------------------------------------||
E||-----------------------------------------------------------------||

Pre-Chorus : - (Palm muted)
e||--------------------------------------------------------------------||X2
B||--------------------------------------------------------------------||
G||--4-4-4-4-4-4-4-4-4-4-4-4-4-4-4-4-----------------------------------||
D||--4-4-4-4-4-4-4-4-4-4-4-4-4-4-4-4--5-5-5-5-5-5-5-5-5-5-5-5-5-5-5-5--||
A||--2-2-2-2-2-2-2-2-2-2-2-2-0-0-0-0--3-3-3-3-3-3-3-3-3-3-3-3-5-5-5-5--||
E||-----------------------------------3-3-3-3-3-3-3-3-3-3-3-3-3-3-3-3--||
[ Tab from: http://www.guitartabs.cc/tabs/w/whamertrons_the/never_the_same_tab.html ]
Chorus : - (With Distortion and Low Octave)
e||-----------------13~-12~-13~-12~~~-----------------15~-14~-13~-12~-12~~~--||x3
B||--------------------------------------------------------------------------||
G||--------------------------------------------------------------------------||
D||--3-x-3-3-x-3-3---------------------4-x-4-4-x-4-4-------------------------||
A||--3-x-3-3-x-3-3---------------------4-x-4-4-x-4-4-------------------------||
E||--1-x-1-1-x-1-1---------------------2-x-2-2-x-2-2-------------------------||

e||--15--14--12~~~--|| 
B||-----------------|| (with wah-wah paddle)
G||-----------------||
D||-----------------||
A||-----------------||
E||-----------------||

Verse 2 : -
Repeat Intro riff (w/Distortion) Guitar I

Guitar II 
e||----------------------------------------|| (with wah paddle)
B||--12~~~~~---8~~~~~---10~~~~~---6~~~~~---||
G||----------------------------------------||
D||----------------------------------------||
A||----------------------------------------||
E||----------------------------------------||

Repeat Pre-Chorus

And comes the outstanding SOLO by guitar II !!!

Repeat Chorus

Then this Outro : -
e||--7--7-7-7---5--5-5-5---2--2-2-2---3--3-3-3---||x2 
B||--5--5-5-5---3--3-3-3---0--0-0-0---5--5-5-5---||
G||-------------0--------------------------------||
D||----------------------------------------------||
A||----------------------------------------------||
E||----------------------------------------------||

e||--7--7-7-7---5--5-5-5---2--2-2-2---3~~~~~-----|| 
B||--5--5-5-5---3--3-3-3---0--0-0-0---5~~~~~-----||
G||-------------0--------------------------------||
D||----------------------------------------------||
A||----------------------------------------------||
E||----------------------------------------------||

This is the whole song. And thats all. If you have
any problem then email me at my either addresses.
Lastly, Whamertrons are WORTH DEVIL !!!

Comments