Weyrock - Special Model Chords & Tabs

 

Special Model Chords & Tabs

Weyrock Chords & Tabs

Version: 1 Type: Tab 0 ratings
1 star 2 stars 3 stars 4 stars 5 stars
comments

Special Model Tab

wetrock
special model
rythm guitar 1:
    ------------------------------------------------------------------
    ------------------------------------------------------------------repeat 
      -------2-2-2-2-2--0-------------------------------------------4x at beg.
      -------2-2-2-2-2--0---2-2-2-2-2----------------------------
      ---------------------0---2-2-2-2-2---------------------------
      -----------------------------------------------------------------

      --------2-2-2-2-2-2-------3-3-3-3-3-3--0-------------------
      --------3-3-3-3-3-3-------0-0-0-0-0-0--2-------------------follow
      --------2-2-2-2-2-2-------2-2-2-2-2-2--2-------------------the lead
      ------------------------------------------------------------------
      ------------------------------------------------------------------
      ------------------------------------------------------------------

      ------------------------------------------------------------------
      ------------------------------------------------------------------
      ---------2-2-2-2-2------3-3-3-3-3---------------------------during
      ---------2-2-2-2-2------3-3-3-3-3--------------------------- solo
      ------------------------------------------------------------------
      ------------------------------------------------------------------

      ------------------------------------------------------------------
      --------------------------------------------------------------------                                                                                 ----------0---------0--------0----------0------------------------   
      -------------2---------0--------2----2----2-----2------------------
      -----0-2-3--------2---------0----------0------------0--------------
      ----------------------------------------------------------------------
              do ^ when lead does it fast (do it slow.)

    lead                      sec.1
              ---------------------------------------------------------------
              ---------------------------------------------------------------
              -------------------0--------0-------0--------0--------------
              --------------2----------0-------2----2---2----2------------            -              ----0-2-3----------2--------0---------0--------0-----------------
              --------------------------------------------------------------------
           2x at beg.  ^
            section 2
                    ---------------------------------------------------------------
                    ---------------------------------------------------------------
                    ----------------------------------------------0------------------
                    ----------------0----------0-------0------0------------------
                     -------------2---------2--------0------0---------------
                    -----0-2-3---------0---------2------3----------------------

                 (now setion again 4 times)alittle faster this time

                    (section 3)-
                    -------2-2-2-2-2-2-------2-2-2-2-2-2-------------------
                    -------3-3-3-3-3-3-------2-2-2-2-2-2-------------------
                    -------2-2-2-2-2-2-------2-2-2-2-2-2------------------
                    -------------------------------------------------------------
                    -------------------------------------------------------------
                    -------------------------------------------------------------

                    --------3-3-3---------------------------------------------
                    --------3-3-3---------------------------------------------
                    --------4-4-4-----1--------------------------------------
                    --------5-5-5-----2--------------------------------------
                    --------------------2--------------------------------------
                    -------------------------------------do 2times-----------
[ Tab from: http://www.guitartabs.cc/tabs/w/weyrock/special_model_tab.html ]
                    sec 1 6x
                    sec 3 2 x 
                     sec 4-     2 x                                               x-mute
                     -----------------------------------------------------------
                     -----------------------------------------------------------
                     --------1-x-x-1-x-1-1-1------2-2-x-2-----------------
                     --------2-x-x-2-x-2-2-2------3-3-x-3-----------------
                     --------2-x-x-2-x-2-2-2------3-3-x-3-----------------
                     ------------------------------------------------------------

                    sec.1  2x
                    sec.3 2x
                    sec. 2x
 
                    --------------------------------------------------------------
                    -------------------------------------------------------------
                    -------------------------------------------------------------
                  ---------------------------------------------------------------
                  --------0-0-0-0-3-0-0-0-0-3-5-3-5-0-0-0-3-5----------
                  ---------------------------------------------------------------
 
                   sec 1  1x
                   sec 3 1x
                   sec.4 1x
                   sec 5 1x
                   
                   (sec.6)
                   -----------------------------------------------------------------
                   -----------------------------------------------------------------
                    ----------------------------------------------------------------
                   -----------------------------------------------------------------
                   ---------------------------------------0-0-3-5-0-0-3-5-3-5-
                   --------0-0-3-5-0-0-3-5-3-5--------------------------------
             
                    solo
                   ----------------9-11-12---------------------------------------
                   ----------------------------------------------------15-12-----
                   -------------------------------------------------------------15-
                   -----------------------------------------------------------------
                  -------------------------------------------------------------------
                  -------------------------------------------------------------------

                   ---------------------------------------------12-------12---------
                   ------12-------14----------------12------ 12-------12--10---
                   ----------------14----------------12----14---10-12-----10---
                   ------------------------------------------------------------------
                   ------------------------------------------------------------------
                  ------------------------------------------------------------------
                  
                   ------------------------------------------------------------------
                 --------------------------------------------------------------------
                 --------------------------------9-7-------------------------9-----
                 ------------7-9-7-9-----------9-7---7-9-7-9------------9-----
                 ----------------------------------------------------------------9--
                 --------------------------------------------------------------------
                              do 4x  sec 1
   sec 1 (do really fast)while rythm trails behind!!! 

                sec 7-
                ---------------------------------------------------------------------
              ----------------------------------------------------------------------
               --------------------------------------------------------------------- 
               ---------------------------------------------------------------------
              ----------------2-2-2---------------2-2-2--------------------------
              ----------------0-0-0---------------3-3-3--------------------------
                        repeat several times then fade out
                                                         
                                                                     wrote by:james rogers
                                                                                    sean thompson
                lead: james rogers
              rythm guitar: sean thompson
                 bass: nathan caudill

                         
                     
Comments