Wet Wet Wet - Love Is All Around Chords & Tabs

 

Love Is All Around Chords & Tabs

Wet Wet Wet Chords & Tabs

Version: 3 Type: Tab

Love Is All Around Tab

   
Tabbed by: Miles Alcantara
(Miles_inevitable@hotmail.com)
Date: Dec. 28, 2005

============================================================================

Verse, Post-Chorus/Pre-Verse & Closing chords:

Bb, Cm7, Eb, F, 
Bb, Cm7, Eb, F

Applied like this in verse:

(!) means start plucking/strumming at this point...

  Bb            Cm7
I feel it in my fing-ers
Eb            F       (Bb, Cm7, Eb, F)-------\
(!) I feel it in my to-es                     \ 
  Bb            Cm7                            > Fill these parts in...
L-love is all a-round me                      / 
Eb             F           (Bb, Cm7, Eb, F)--/  
(!) And so the fee-ling gro-ows...

2nd guitar fill in: (Bb, Cm7, Eb, F)
[ Tab from: http://www.guitartabs.cc/tabs/w/wet_wet_wet/love_is_all_around_tab_ver_3.html ]
             Bb                  Cm7                  Eb              F
 e|-----------------------|---------------|-----------------------|-------|
 B|-----------------------|-----------4---|---4---4---3-----------|-------|
 G|-------7---5-------5---|-------3-------|---------------5---3---|---2---|
 D|---------------8-------|---5-----------|-----------------------|-------|
 A|---8-------------------|---------------|-----------------------|-------|
 E|-----------------------|---------------|-----------------------|-------|


----------------------------------------------------------------------------

Chorus chords:

Eb, Cm, Eb, Bb, 
Eb, Cm, Cm, F

Applied like this:

Eb                         Cm
(!) You know I love you, I al-ways will
Eb                           Bb
(!) My mind's made up by the way that I feel
        Eb                     Cm
There's no beginning, there'll be no end
    (Cm)            F
'Cos on my love you can depend...

============================================================================

Likely used chords:

Verse/Pre-Verse/Closing: 

Strings with () means not to be plucked during a verse. On the otherhand,
strum these chords during pre-verse parts and closing...

     Bb  Cm7   Eb   F
e|--(1)--(3)--(3)--(1)--|
B|---3----4----4----1---|
G|---3----3----3----2---|
D|---3----5----1----3---|
A|---1----3----x----3---|
E|--(1)--(3)---x---(1)--|

Chorus:

     Eb   Cm   Bb   F 
e|--(6)---3----1----1---|
B|---8----4----3----1---|
G|---8----5----3----2---|
D|---8----5----3----3---|
A|---6----3----1----3---|
E|---6----3----1----1---|

-End of tab-