Wet Wet Wet - Dont Want To Forgive Me Now Chords & Tabs

 

Dont Want To Forgive Me Now Chords & Tabs

Wet Wet Wet Chords & Tabs

Version: 1 Type: Tab 0 ratings
1 star 2 stars 3 stars 4 stars 5 stars
comments

Dont Want To Forgive Me Now Tab

ARTIST: Wet Wet Wet
TITLE: Don't Want To Forgive Me Now
ALBUM: Picture This
TABBED BY: Martin Kelly

INTRO

E-----------------3----------------------------------------------------------------------
B-----------------0----------------------------------------------------------------------
G--7-6-7-4-7-2-7--0----------------------------------------------------------------------
D-----------------0----------------------------------------------------------------------
A-----------------2----------------------------------------------------------------------
E-----------------3----------------------------------------------------------------------

VERSE

E--------------------------------3----------3---------3----------------------------------
B--3-------------3---------------0-----2----0----2----0----2-----------------------------
G--2-----2-------2-----2---------0-----2----0----2----0----2----7-6-7-4-7-2-7------------
D--------2-------------2---------0-----2----0----2----0----2-----------------------------
A--------------------------------2-----0----2----0----2----0-----------------------------
E--------------------------------3----------3---------3----------------------------------

CHORUS
[ Tab from: http://www.guitartabs.cc/tabs/w/wet_wet_wet/dont_want_to_forgive_me_now_tab.html ]
E--3---------3---------------------------------------------------------------------------
B--0----2----0----2---------------2------------------------------------------------------
G--0----2----0----2----7-6-7-7----2-----7-6-7-4-7-2-7------------------------------------
D--0----2----0----2---------------2------------------------------------------------------
A--2----0----2----0---------------0------------------------------------------------------
E--3---------3---------------------------------------------------------------------------

MIDDLE

E--1--------------1------------------------------------------------------------------------
B--3-------1------3------2-------------------------------------------------------------------
G--3-------2------3------2--------7-6-7-4-7-2-7--7-6-7-4-7-2-7-------------------------------
D--3-------2------3------2-------------------------------------------------------------------
A----------0-------------0-----------------------------------------------------------------
E----------------------------------------------------------------------------------------


Song goes like this:

INTRO
VERSE
CHORUS
VERSE
CHORUS
MIDDLE
VERSE
CHORUS X2

End by playing the '7674727' twice.


For a list of Guitar Tabs, contact electricgod8512@aol.com.


Comments