Wet Slipperz - Bisan Pa Chords & Tabs

 

Wet Slipperz Chords & Tabs

Version: 4 Type: Tab 0 ratings
1 star 2 stars 3 stars 4 stars 5 stars
comments

Bisan Pa Tab

   
BISAN PA 

INTRO 

e|----------------------|---------------------0|
B|---3---3----3------3-3|---3---3----3------3--|
G|--0-0---0----0------0-|--0-0---0----0------0-|
D|-----4----------------|-----4----------------|
A|----------3----2s3----|----------3----2s3----|
E|----------------------|----------------------|

   Em     D     C    
e|--0--|--0--|--0--|--x--|--xx--|--xx--|
B|--0--|--0--|--0--|--x--|--xx--|--xx--|
G|--9--|--7--|--5--|--9--|--11--|--12--|
D|--9--|--7--|--5--|--9--|--11--|--12--|
A|--7--|--5--|--3--|--7--|-- 9--|--10--|
E|-----|-----|-----|-----|------|------|

G        D       C
Dili sayon ang hikalimtan ka...
G           D      C           D
Hangtod karon ako nag-pa-abot pa...
G          D         C         D
Nga Mahibalik pa ang kagahapon ta
Em          D        C          D Dsus
Bisan pa ug ako gikalimtan mo na...
[ Tab from: http://www.guitartabs.cc/tabs/w/wet_slipperz/bisan_pa_tab_ver_4.html ]
Chorus:
      G          D       C
Bisan pa ug may la-in ka na karon
      G        D        C
Ikaw lang gihapon ang higugma-on
      G        D          C         D
Bisan pa ug kasakit lang ang ma-angkon
      Em       D        C             D    
Basta malipay ka ang tanan akong dawaton...

(Repeat Intro)

II.(repeat verse chords)
Nakita ko karon ang kahimtang mo...
Lahi ra gyud sa ako pa ang ka-uban mo... (Ang kauban mo...)
Sa iyang kiliran pagka malipayon mo
Ug ako ani-a naghandom nga balikon mo... Ohh...

(Repeat Chorus)

Bridge:
Am        Bm           C              D
Hangtod karon ako ming-laom lang gihapon...
Am        Bm           C              D
Nga mo-abot ang panahon nga imong balikon...
Bisan pa... Bisan pa...

(Repeat Chorus 2x)
       C             D
Ang tanan akong dawaton...

   Em     D     C    
e|--0--|--0--|--0--|--x--|--xx--|--xx--|
B|--0--|--0--|--0--|--x--|--xx--|--xx--|
G|--9--|--7--|--5--|--9--|--11--|--12--|
D|--9--|--7--|--5--|--9--|--11--|--12--|
A|--7--|--5--|--3--|--7--|-- 9--|--10--|
E|-----|-----|-----|-----|------|------| (fade) >:) 




halos lahat tama ^_^ :p 
Comments