Wet Slipperz - Bisan Pa Chords & Tabs

 

Wet Slipperz Chords & Tabs

Version: 1 Type: Tab 0 ratings
1 star 2 stars 3 stars 4 stars 5 stars
comments

Bisan Pa Tab

BAND: WET SLIPPERZ

SONG TITLE:  BISAN PA
[ Tab from: http://www.guitartabs.cc/tabs/w/wet_slipperz/bisan_pa_tab.html ]
 Intro:
   e|----------------------------------|----------------------------0-------|
   B|----3-----3--------3-----3-----3--|---3----3--------3-----3--3---------|
   G|-----------0-----------------0--0-|----0----0--------------0-----------|
   D|------------0--------------0------|-----0----0-------------------------|
   A|-----------------3---2s3----------|--------------3---2s3---------------|
   E|--3---3-2-------------------------|-3-----2----------------------------|
 
 or this
   e|------------------------------|-------------------------0------|
   B|----3-----3------3-----3---3--|---3----3------3-----3-3--------|
   G|-----0-----0--------------0--0|----0----0------------0---------|
   D|-5----5-4---4------------0----|-5---5-4--4---------------------|
   A|---------------3---2s3--------|-------------3---2s3------------|
   E|------------------------------|--------------------------------|

.,pakirate na lang poh.,tnx.,
Comments