Weston - Retarded Chords & Tabs

 

Retarded Chords & Tabs

Weston Chords & Tabs

Version: 2 Type: Bass Tab 0 ratings
1 star 2 stars 3 stars 4 stars 5 stars
comments

Retarded Bass Tab

Song:Retarded   
Band:Weston     
Album:Got Beat Up
tabbed by:Jeff Chappell 


[ Tab from: http://www.guitartabs.cc/tabs/w/weston/retarded_btab_ver_2.html ]
VERSE Start when the drums come in and repeat ad infinitum      
G:---------------------------------------------------------------
D:---------------------------------------------------------------
A:1-1-1-1--------------------------------------------------------
E:-----------1-1-1-1----0-0-0-0----1-1-1-1-----------------------

Chorus "You are so retarded. I must be retarded too."
G:---------------------------------------------------------------
D:---------------------------------------------------------------
A:-----------3-3-3-3---------------------------------------------
E:5-5-5-5---------------0-0-0-0-0-0-0-0--------------------------

VERSE
CHORUS x 3
VERSE

@aol.com)*
Comments