Westnile - Westnile Chords & Tabs

 

Westnile Chords & Tabs

Westnile Chords & Tabs

Version: 1 Type: Tab 0 ratings
1 star 2 stars 3 stars 4 stars 5 stars
comments

Westnile Tab

This is a song that I made up. hope it's good.


-----------------------------------
-----------------------------------
---0000----------------------------
--------0000-----------------------
-----------------------------------
-----------------------------------

-----------------------------------
-----------------------------------
---2222----------------------------
--------2222-----------------------
-----------------------------------
-----------------------------------

Repeat 2 times


-----------------------------------
-----------------------------------
---0-1-----------------------------
------0-3-2------------------------
-----------0-3-2-0-----------------

Repeat 4 times


----------------------
----------------------
----------------------
----------------------
----------------------
---0-2-3--0-2-3--0-2-3
[ Tab from: http://www.guitartabs.cc/tabs/w/westnile/westnile_tab.html ]
----------------------
----------------------
----------------------
-----------0-2-3-2-0--
---------2------------
---0-2-3--------------

Repeat 4 times
------------------------------------
---0-0-0-0--------------------------
-----------2-2-2-2------------------
-------------------3-3-3-3--2-2-2-2-
------------------------------------
------------------------------------

Repeat 4 times

After this i usually just fool around 
and try to make up new stuff for it.

here's the litttle solo part i put in for it

verse 1
--------------------------------------
--------------------------------------
--------------------------------------
--------------------------------------
-----10-9---10-9-10--0-10-9--0-10-9-10
---0------0---------------------------
Repeat twice

verse 2
---------------------------------------
---------------------------------------
---------------------------------------
-----10-9---10-9-10--0-10-9--0-10-9-10-
---0------0----------------------------
---------------------------------------

repeat verse 1 again

it's just a start, but to me it sounds 
good. hope y'all like it.

TJ
Comments