Westbound - Underdog Chords & Tabs

 

Underdog Chords & Tabs

Westbound Chords & Tabs

Version: 1 Type: Tab 0 ratings
1 star 2 stars 3 stars 4 stars 5 stars
comments

Underdog Tab

underdog by westbound the best punk band in the world!!!!

intro
--------------------------------
--------------------------------
-------------77-xx-11-----------
-77-xx-44-xx-76-xx-22-xx--------
-77-xx-44-xx-55-xx-22-xx--------
-55-xx-22-xx----xx-00-xx--------

verse

--------------------------
--------------------------
-----------7777-----------
-7777-4444-7777-2222------
-7777-4444-5555-2222------
-5555-2222------0000------
[ Tab from: http://www.guitartabs.cc/tabs/w/westbound/underdog_tab.html ]
pre
--------------------------------
--------------------------------
-----7777----------7777---------
-444-7777-7777-444-7777-2222----
-444-5555-7777-444-5555-2222----
-222------5555-222------0000----

chorus
------------------------------
------------------------------
------7777------1212----------
-7676-7676-4444-2222----------
-7777-5555-4444-2222----------
-5555------2222-0000----------

bridge
-----------------------------------------
------------6-------12----------10-------
----6------7-7----11--11-------9--9------
---7-7----7---6-11------12p/7-9----8-----
--7---6h/5-----9-------------7-----------
-5---------------------------------------

note: brige is very tricky and is done with sweet picking
listen to cd or go to
http://www.newmusiccanada.com/genres/artist.cfm?Band_Id=7372
to hear!!!

WESTBOUND RULES!!!!!!!!!!!!!
Comments