Wertz Matt - Falling Off The Face Of The Earth Chords & Tabs

 

Falling Off The Face Of The Earth Chords & Tabs

Wertz Matt Chords & Tabs

Version: 1 Type: Chords 0 ratings
1 star 2 stars 3 stars 4 stars 5 stars
comments

Falling Off The Face Of The Earth Chords

   
Matt Wertz - Falling Off The Face of the Earth
Tabbed by George P - grptertius@yahoo.com
Standard Tuning - 4/4



Intro:

e-----------------------------------------|
B--7---6---2---4--------2-----------------|
G--------------------------------3--------|
D-----------------------------------------|
A-6----4---1---2--------4-----------------|
E--------------------------------2--------|


e-----------------------------------------|
B--7---6---2---4--------6--------7--------|
G-----------------------------------------|
D-----------------------------------------|
A--6---4---1---2--------4--------6--------|
E-----------------------------------------|


e-----------------------------------------|
B--7---6---2---4--------2-----------------|
G--------------------------------3--------|
D-----------------------------------------|
A--6---4---1---2--------4-----------------|
E--------------------------------2--------|


e-----------------------------------------|
B-----------------------------------------|
G--3---1-------------3--------1-----------|
D----------4------4---4----5---5-4--------|
A---------------6--6---6-4--4---4---------|
E--------------6-6--6---4-4--4---2--------|


CHORDS:

Verse 1:

 B     C#      F#


 B     C#     D#m

[ Tab from: http://www.guitartabs.cc/tabs/w/wertz_matt/falling_off_the_face_of_the_earth_crd.html ]
 B     C#      F#      D#m


 B     C#      F#


 B     C#     D#m


 B     C#     F#       D#m                 



Chorus:

 B     C#     F#


 B     C#     F#


 B     A#     D#m


 G#    B       C#      F#



Verse 2:

 B     C#      F#


 B     C#      D#


 B     C#      F#      D#m



*Repeat Chorus*


Bridge:

 B      C#      A#      D#m      B       C#



Ending Chorus:

 B      C#      F#


 B      C#      F#


 B      A#      D#m



 G#     B       C#      D#m



 G#     B       C#      D#m



 G#     B       C#   ...fade




Chords used:

B    x24442
C#   x46664
F#   244322
D#m  668876
A#   688766
G#   466544

Feel free to comment or e-mail with corrections
Comments