Welsh Anthem - Welsh Anthem Chords & Tabs

 

Welsh Anthem Chords & Tabs

Welsh Anthem Chords & Tabs

Version: 1 Type: Tab 0 ratings
1 star 2 stars 3 stars 4 stars 5 stars
comments

Welsh Anthem Tab


Welsh anthem

heres the anthem for wales Enjoy:)

---------------------------------------------------------------------------------------------------






e--------------------------------------------------------------------------
B-9---7---5-------------------------------------15---15---12---14---15-----
G------------------------14----12-----11-----------------------------------
D--------------------------------------------------------------------------
A--------------------------------------------------------------------------
E--------------------------------------------------------------------------
[ Tab from: http://www.guitartabs.cc/tabs/w/welsh_anthem/welsh_anthem_tab.html ]
e--------------------------------------------------------------------------
B---12---10----------------------------------------------------------------
G--------------11----------------------------------------------------------
D-------------------12---12---11---12---14---14---14---14------------------
A--------------------------------------------------------------------------
E--------------------------------------------------------------------------

e--------------------------------------------------------------------------
B--------------------------------------------------------------------------
G-----------------------------------------------16---18---19---19---16-----
D---16---17---19---19---16---17----19--------------------------------------
A--------------------------------------------------------------------------
E--------------------------------------------------------------------------

e---------------------------------------------------------------------------
B---------------------------------------------------------------------------
G---18---19---16---14-------------------------------------------------------
D---------------------------16---12---14---16---14---12---------------------
A---------------------------------------------------------------------------
E---------------------------------------------------------------------------
Comments