Weismann Eric - Dueling Banjos Chords & Tabs

 

Dueling Banjos Chords & Tabs

Weismann Eric Chords & Tabs

Version: 1 Type: Tab 3 ratings
1 star 2 stars 3 stars 4 stars 5 stars
comments

Dueling Banjos Tab

This has been tabbed from memory. It was the way i learned it. 
I think it`s way more accurate than the other versions, but not as accurate
as it should be. It`s wrutten for 2 guitars, so happy Jammin` 
Gripes or Praise, PM Frankyz84.


                           DUELING BANJOS



SLOWLY
 Guitar       Banjo        Guitar       Banjo        Guitar
|------------|------------|-3-3-3-0--3-|-3-3-3-5--3-|-------------------|
|------------|-3-3-3-5--3-|-0-0-0-1--0-|-3-3-3-5--3-|-------------------|
|------------|-4-4-4-4--4-|-0-0-0-0--0-|-4-4-4-5--4-|-------------------|
|-0-0-0-0--0-|------------|-0-0-0-2--0-|------------|-----0-------------|
|-2-2-2-3--2-|------------|-2-2-2-3--2-|------------|-2-3---2-3-0-2---0-|
|-3-3-3-3--3-|------------|-3-3-3----3-|------------|----------------3--|

 Banjo               Guitar              Banjo               Guitar
|-------------------|-------------------|-------------------|---------------|
|-0-1-3-0-1---0-----|-------------------|-0-1-3-0-1---0-----|---------------|
|-----------2---0-2-|-------------------|-----------2---0-2-|---------------|
|-------------------|-----0-------------|-------------------|---------------|
|-------------------|-2-3---2-3-0-2---0-|-------------------|-----0-2---2-0-|
|-------------------|---------------3---|-------------------|-3-3-----3-----|

 Banjo       Guitar              Banjo               Guitar
|-----------|-------------------|-------------------|-------------------|
|-------0---|-------------------|---------0-1-3-1-0-|-------------------|
|-0-0-2---0-|-------------------|-0-0-0-2-----------|-------------------|
|-----------|-------------0-----|-------------------|-------------0-----|
|-----------|-------0-2-3---3-2-|-------------------|-------0-2-3---3-2-|
|-----------|-3-3-3-------------|-------------------|-3-3-3-------------|

 Banjo              Guitar              Banjo               Guitar
|------------------|-------------------|---------0-1-3-1-0-|-----------------|
|--------0-1-3-1-0-|-------------------|-1-1-1-3-----------|-----------------|
|-0-0-0-2----------|-------------0-----|-------------------|-----------------|
|------------------|-------0-2-3---3-2-|-------------------|-----------0-----|
|------------------|-3-3-3-------------|-------------------|-----0-2-3---3-2-|
|------------------|-------------------|-------------------|-3-3-------------|

 Banjo               Guitar              Banjo               Guitar
|-------------------|-------------------|-------0-2-3-5-3-2-|------------|
|---------0-1-3-1-0-|-------------------|-3-3-3-------------|------------|
|-0-0-0-2-----------|-----------0-2-0---|-------------------|------------|
|-------------------|-0-0-0-2-4-------4-|-------------------|-0-0-0-0--0-|
|-------------------|-------------------|-------------------|-2-2-2-3--2-|
|-------------------|-------------------|-------------------|-3-3-3-3--3-|

 Banjo        Guitar
|------------|-3-3-3-0--3-|-3-3-3-5-3-|
|-3-3-3-5--3-|-0-0-0-1--0-|-3-3-3-5-3-|
|-4-4-4-4--4-|-0-0-0-0--0-|-4-4-4-5-4-|
|------------|-0-0-0-2--0-|-----------|
|------------|-2-2-2-3--2-|-----------|
|------------|-3-3-3----3-|-----------|







                        Banjo  (120 BPM)                     
                       |------------------------|-------------------|
                       |-0-1-3-0-1---0------0-1-|-3-0-1---0-----0-1-|
                       |-----------2---0--2-----|-------2---0-2-----|
                       |------------------------|-------------------|
                       |------------------------|-------------------|
                       |------------------------|-------------------|
 Guitar                |Guitar  (120 BPM)                           |
|-----||---------------|------------------------|-------------------|
|-----||---------------|------------------------|-------------------|
|-----|*---------------|------------------------|-0-------0---------|
|-----|*-0-------------|------------------------|-----0-------0-----|
|-2-3-||---2-3-0-2---0-|--------------------2-3-|-------------------|
|-----||-----------3---|------------------------|-------------------|
 Banjo
|-----------------|-------------------|--------------------|
|-3-0-1---0-------|---------0---0-----|---------0----------|
|-------2---0-2---|-0-0-0h2---0---2---|-0-0-0h2---0--------|
|---------------0-|-----------------0-|---------------3----|
|-----------------|-------------------|--------------------|
|-----------------|-------------------|--------------------|
|Guitar                                                    |
|-----------------|-------------------|--------------------|
|-----------------|---------0---0-----|---------0----------|
|-0-------0-------|-0-0-0h2---0---2---|-0-0-0h2---0--------|
|-----0------0--0-|-----------------0-|--------------------|
|-----------------|-------------------|----------------0-2-|
|-----------------|-------------------|--------------3-----|
[ Tab from: http://www.guitartabs.cc/tabs/w/weismann_eric/dueling_banjos_tab.html ]
 Banjo
|-12-12-12-12-12-12-12-12-|-10-10-10-10-10-10-10-10-|
|-11-11-11-11-11-11-11-11-|-12-12-12-12-12-12-12-12-|
|-12-12-12-12-12-12-12-12-|-12-12-12-12-12-12-12-12-|
|-------------------------|-------------------------|
|-------------------------|-------------------------|
|-------------------------|-------------------------|
|Guitar                                             |
|--0--0--0--0--0--0--0--0-|--3--3--3--3--3--3--3--3-|
|--1--1--1--1--1--1--1--1-|--0--0--0--0--0--0--0--0-|
|--3--3--3--3--3--3--3--3-|--0--0--0--0--0--0--0--0-|
|--2--2--2--2--2--2--2--2-|--0--0--0--0--0--0--0--0-|
|--3--3--3--3--3--3--3--3-|--2--2--2--2--2--2--2--2-|
|-------------------------|--3--3--3--3--3--3--3--3-|

 Banjo
|--8--8--8--8--8--8--8--8-|-10-10-10-10-10-10-10-10-|
|-10-10-10-10-10-10-10-10-|-12-12-12-12-12-12-12-12-|
|-11-11-11-11-11-11-11-11-|-10-10-10-10-10-10-10-10-|
|-------------------------|-------------------------|
|-------------------------|-------------------------|
|-------------------------|-------------------------|
|Guitar                                             |
|--2--2--2--2--2--2--2--2-|--3--3--3--3--3--3--3--3-|
|--1--1--1--1--1--1--1--1-|--0--0--0--0--0--0--0--0-|
|--2--2--2--2--2--2--2--2-|--0--0--0--0--0--0--0--0-|
|-------------------------|--0--0--0--0--0--0--0--0-|
|-------------------------|--2--2--2--2--2--2--2--2-|
|-------------------------|--3--3--3--3--3--3--3--3-|

 Banjo
|-12-12-12-12-12-12-12-12-|-10-10-10-10-10-10-10-10-|
|-11-11-11-11-11-11-11-11-|-12-12-12-12-12-12-12-12-|
|-12-12-12-12-12-12-12-12-|-12-12-12-12-12-12-12-12-|
|-------------------------|-------------------------|
|-------------------------|-------------------------|
|-------------------------|-------------------------|
|Guitar                                             |
|--0--0--0--0--0--0--0--0-|--3--3--3--3--3--3--3--3-|
|--1--1--1--1--1--1--1--1-|--0--0--0--0--0--0--0--0-|
|--3--3--3--3--3--3--3--3-|--0--0--0--0--0--0--0--0-|
|--2--2--2--2--2--2--2--2-|--0--0--0--0--0--0--0--0-|
|--3--3--3--3--3--3--3--3-|--2--2--2--2--2--2--2--2-|
|-------------------------|--3--3--3--3--3--3--3--3-|

 Banjo                                       *To Coda*
|--8--8--8--8--8--8--8--8-|-10-10-10-10-10-10-10------|
|-10-10-10-10-10-10-10-10-|-12-12-12-12-12-12-12------|
|-11-11-11-11-11-11-11-11-|-10-10-10-10-10-10-10------|
|-------------------------|---------------------------|
|-------------------------|---------------------------|
|-------------------------|---------------------------|
|Guitar                                      *To coda*|
|--2--2--2--2--2--2--2--2-|--3--3--3--3--3--3--3------|
|--1--1--1--1--1--1--1--1-|--0--0--0--0--0--0--0------|
|--2--2--2--2--2--2--2--2-|--0--0--0--0--0--0--0------|
|--0--0--0--0--0--0--0--0-|--0--0--0--0--0--0--0------|
|-------------------------|--2--2--2--2--2--2--2------|
|-------------------------|--3--3--3--3--3--3--3-3--3-|

 Banjo
|-------------------------3-|---3---3---3---3---3---3----------|
|---------------------------|---------0---1---3---1----0-------|
|-----------------------0---|-0---2----------------------------|
|---------------------------|----------------------------------|
|---------------------------|----------------------------------|
|---------------------------|----------------------------------|
|Guitar                                                        |
|---------------------------|----------------------------------|
|---------------------------|----------------------------------|
|---------------------------|----------------------------------|
|---0---0---0---0--0--------|------------------------------0-0-|
|-----0---2---3------3--2---|------------------------------2-2-|
|-3-------------------------|------------------------------3-3-|

 Banjo                                          *coda*
|----------------------|--------3--3--3--5-3-||-10-10-10-10-10-10-10----|
|----------3-3-3--5--3-|--------3--3--3--5-3-||-12-12-12-12-12-12-12----|
|----------4-4-4--4--4-|--------4--4--4--5-4-*|-10-10-10-10-10-10-10----|
|----------------------|---------------------*|-------------------------|
|----------------------|---------------------||-------------------------|
|----------------------|---------------------||-------------------------|
|Guitar                                         *coda*
|---------------3--3-3-|-3--0--3-------------||--3--3--3--3--3--3--3----|
|---------------0--0-0-|-0--1--0-------------||--0--0--0--0--0--0--0----|
|---------------0--0-0-|-0--0--0-------------*|--0--0--0--0--0--0--0----|
|-0--0--0-------0--0-0-|-0--2--0-------------*|--0--0--0--0--0--0--0----|
|-2--3--2-------2--2-2-|-2--3--2---------2-3-||--2--2--2--2--2--2--2----|
|-3--3--3-------3--3-3-|-3-----3-------------||--3--3--3--3--3--3--3----|

 Banjo
|-3---------------------------|-------------------3~~~-|
|----5-3-5-3--------3---------|-------------------0~~~-|
|-------------4-3-4---4-2-0---|-0-----------------0~~~-|
|---------------------------2-|----2-0-----0------0~~~-|
|-----------------------------|--------1-2----3---2~~~-|
|-----------------------------|-------------------3~~~-|
|Guitar
|-3~~~~-----------------------|-------------------3~~~-|
|-0~~~~-----------------------|-------------------0~~~-|
|-0~~~~-----------------------|-------------------0~~~-|
|-0~~~~-----------------------|-------------------0~~~-|
|-2~~~~-----------------------|-------------------2~~~-|
|-3~~~~-----------------------|-------------------3~~~-|


Set notepad for New Courier 10. it will fit pefectly to 4 pages. ENJOY
Comments