Weird Al Yankovic - Your Horiscope For Today Chords & Tabs

 

Your Horiscope For Today Chords & Tabs

Weird Al Yankovic Chords & Tabs

Version: 1 Type: Bass Tab 0 ratings
1 star 2 stars 3 stars 4 stars 5 stars
comments

Your Horiscope For Today Bass Tab

   
Intro
G|-----------------------------------------------------------------|
D|-----------------------------------------------------------------|
A|-3333-5555-7777-8888-10-10-10-10-10-10-10-10-3-3-3-3-1-3-3-------|
E|-----------------------------------------------------------5-3-5-|

Verse
G|---------------------------------------------------|
D|---2-5---2-5---0-3---0-3---2-5---2-5---7-10---7-10-|
A|-3-----3-----1-----1-----3-----3-----8------8------|
E|---------------------------------------------------|
[ Tab from: http://www.guitartabs.cc/tabs/w/weird_al_yankovic/your_horiscope_for_today_btab.html ]
Chorus
G|---------------------------------------------------------|
D|---------------------------------------------------------|
A|-3333-5555-7777-8888-10-10-10-10-10-10-10-10-3333--------|
E|---------------------------------------------------55-33-|

-verse
-chorus

Bridge 2x
G|------------------------------------------------------------------------------|
D|-----------------------------------------------------------------2-5-7775555-|
A|--------------------------------------------2-3--------2-3-5-3-3--------------|
E|-11111111-33333333-00000000-11111111-111111-----333333------------------------|

-verse
-chorus

Ending
G|---------|
D|---------|
A|-3-3-3-3-|
E|---------|

 
 


Comments