Weird Al Yankovic - The Devil Went Down To Jamaica Chords & Tabs

 

The Devil Went Down To Jamaica Chords & Tabs

Weird Al Yankovic Chords & Tabs

Version: 1 Type: Bass Tab 1 rating
1 star 2 stars 3 stars 4 stars 5 stars
comments

The Devil Went Down To Jamaica Bass Tab

Intro
G|----------------------------------------------|-
D|----------------------------------------------|- 
A|-5---5---3---3---5-3---------5---3-5----3--5--|-
E|---5---5---3---3-----6-5-3-5---5----------5---|-

Verse 
G|---------|---------
D|---------|---------
A|---3-5---|-0-2-3-4-
E|-5-------|---------
[ Tab from: http://www.guitartabs.cc/tabs/w/weird_al_yankovic/the_devil_went_down_to_jamaica_btab.html ]
Chorus
G|--------------------------------------------------------
D|---------------------------------------------4-5---5--7- 
A|-5---5---3---3-------5---5-5---5---3-5---5-7-----5---5-- 
E|---5---5---3---6-5-3---3-----5---5-----5----------------

G----------------------------------------|-
D-7-5------------------------------------|- 
A-----8-7-5--5--3--3--5-3---------5--3-5-|- 
E-----------5--5--3--3----6-5-3-5---5----|-

Comments