Weird Al Yankovic - Thats Your Horoscope For To Day Chords & Tabs

 

Thats Your Horoscope For To Day Chords & Tabs

Weird Al Yankovic Chords & Tabs

Version: 1 Type: Tab

Thats Your Horoscope For To Day Tab

   
Wierd al is one of the funnyest artist ever this is one of his originals
derek2493@yahoo.com

Intro
G|-----------------------------------------------------------------|
D|-----------------------------------------------------------------|
A|-3333-5555-7777-8888-10-10-10-10-10-10-10-10-3-3-3-3-1-3-3-------|
E|-----------------------------------------------------------5-3-5-|

Verse
G|---------------------------------------------------|
D|---2-5---2-5---0-3---0-3---2-5---2-5---7-10---7-10-|
A|-3-----3-----1-----1-----3-----3-----8------8------|
E|---------------------------------------------------|
[ Tab from: http://www.guitartabs.cc/tabs/w/weird_al_yankovic/thats_your_horoscope_for_to_day_tab.html ]
Chorus
G|---------------------------------------------------------|
D|---------------------------------------------------------|
A|-3333-5555-7777-8888-10-10-10-10-10-10-10-10-3333--------|
E|---------------------------------------------------55-33-|

-verse
-chorus

Bridge 2x
G|---------------------------------------------------------------------------|
D|-----------------------------------------------------------------2-5-77755-|
A|--------------------------------------------2-3--------2-3-5-3-3-----------|
E|-11111111-33333333-00000000-11111111-111111-----333333---------------------|

-verse
-chorus

Ending
G|---------|
D|---------|
A|-3-3-3-3-|
E|---------|