Weird Al Yankovic - Smells Like Nirvana Chords & Tabs

 

Smells Like Nirvana Chords & Tabs

Weird Al Yankovic Chords & Tabs

Version: 1 Type: Bass Tab 0 ratings
1 star 2 stars 3 stars 4 stars 5 stars
comments

Smells Like Nirvana Bass Tab

          Weird al Yankovitch
          Smell like nirvana
          
          Intro (play a little faster then nirvana dose)
          
          =====
          
          G|------|-------------------------------|-------------------------------|
          D|------|*------------------------------|------------------------------*|
          A|------|*---------1-1-0----------4-4-0-|---------1-1-0----------4-4-4-*|
          E|-/12\-|--1--1-1---------4--4-4--------|-1--1-1---------4--4-4---------|
          
          
          
          Verse
          
          =====                                (10x)
          
          G|----------------------------------------|
          D|*--------------------------------------*|
          A|*-----------1-1-1-1-----------4-4-4-4--*|
          E|---1-1-1-1-----------4-4-4-4------------|
          
          
          
          
          
          Chorus
          
          ======                          (6x)
          
          G|----------------------------------|----------------------------------|
          D|*--------------------------------*|*--------------------------------*|
          A|*----------1-1-0----------4-4-0--*|*--------------------------------*|
          E|---1--1-1---------4--4-4----------|--1-1-0-1-2-2----1-1-0-1-5-5-3-3--|
          
          
          
          Verse
          
          =====                                (10x)
          
          G|----------------------------------------|
          D|*--------------------------------------*|
          A|*-----------1-1-1-1-----------4-4-4-4--*|
          E|---1-1-1-1-----------4-4-4-4------------|
          
          
          
          
          
          Chorus
          
          ======                          (6x)
          
          G|----------------------------------|----------------------------------|
          D|*--------------------------------*|*--------------------------------*|
          A|*----------1-1-0----------4-4-0--*|*--------------------------------*|
          E|---1--1-1---------4--4-4----------|--1-1-0-1-2-2---1-1-0-1-5-5-3-3---|
          
          
          
          voice Solo (sing w/ water in mouth, trobone, kazoo Ect.)
          
          ===========                    (8x)
          
          G|---------------------------------|----|
          D|*-------------------------------*|----|
          A|*----------1-1-0----------4-4-0-*|----|
          E|---1--1-1---------4--4-4---------|4/1-|
          
          
          
          
          
          Verse
          
          =====                                (10x)
          
          G|----------------------------------------|
          D|*--------------------------------------*|
          A|*-----------1-1-1-1-----------4-4-4-4--*|
          E|---1-1-1-1-----------4-4-4-4------------|
[ Tab from: http://www.guitartabs.cc/tabs/w/weird_al_yankovic/smells_like_nirvana_btab.html ]
Comments