Weird Al Yankovic - Pretty Fly For A Rabbi Chords & Tabs

 

Pretty Fly For A Rabbi Chords & Tabs

Weird Al Yankovic Chords & Tabs

Version: 2 Type: Bass Tab 0 ratings
1 star 2 stars 3 stars 4 stars 5 stars
comments

Pretty Fly For A Rabbi Bass Tab

   
-----------------------------------------------------------------------------
			     Pretty Fly for a Rabbi - Weird Al Yankovic
-----------------------------------------------------------------------------

Tabbed By : Jacob Smith
e-mail: theincoherentramblers@hotmail.com
Feel free to email me with comments or corrections
This one is for Connor, Af and Nick
Tuning: Standard - E-A-D-G

Intro

G|------------------------|
D|----------------------*-| Repeat 3x
A|--2-2-----2-2-7-5-----*-|
E|------2-5---------------|

then 

G|-----------------|
D|-----------------|
A|-2-2-----2-------|
E|-----2-5---------|

Verse
[ Tab from: http://www.guitartabs.cc/tabs/w/weird_al_yankovic/pretty_fly_for_a_rabbi_btab_ver_2.html ]
G|------------------------|
D|----------------------*-| Repeat 4x
A|--2-2-----2-2-7-5-----*-|
E|------2-5---------------|

Chorus

G|-----------------|--------------|
D|------3h4-3h4--*-|--------------| Repeat 3x
A|---2-----------*-|--5---5-7-----|
E|-----------------|----5-----3-5-|

then

G|--------------|
D|--------------|
A|--5---5-7-----|
E|----5-----3-5-|

Pre-Verse ('How you doin Bernie')

G|------------------------|
D|----------------------*-| Repeat 3x
A|--2-2-----2-2-7-5-----*-|
E|------2-5---------------|

then 

G|-----------------|
D|-----------------|
A|-2-2-----2-------|
E|-----2-5---------|

Bridge ('When he's doing a bar mitzvah')

G|-------------------4-------------|
D|---------------------------------| x2
A|--2--0h2--0h2--0h2----0h2p0------|
E|---------------------------------|


Rock on!
Thefootfreak
Comments