Weird Al Yankovic - Pretty Fly For A Rabbi Chords & Tabs

 

Pretty Fly For A Rabbi Chords & Tabs

Weird Al Yankovic Chords & Tabs

Version: 1 Type: Bass Tab 0 ratings
1 star 2 stars 3 stars 4 stars 5 stars
comments

Pretty Fly For A Rabbi Bass Tab

weird al
"pretty fly for a rabbi"

G--------------------
D--------------2-0---  intro& verse
A-2-2---0--2-2-------
E-----2--------------

G--------------------
D---------3-4-3-4--- chorus
A--2--2-------------
E--------------------
[ Tab from: http://www.guitartabs.cc/tabs/w/weird_al_yankovic/pretty_fly_for_a_rabbi_btab.html ]
"grab your yamaica"
G-------------------
D-------------------
A-5-5---5-7-7---7---
E-----5-------7-----

"when he's doing a bar mitzfa"
G--------------------------
D-------------------0-2-----
A-2--0-2--2--0-2--2---------
E---------------------------
Comments