Weird Al Yankovic - Night Santa Went Crazy Chords & Tabs

 

Night Santa Went Crazy Chords & Tabs

Weird Al Yankovic Chords & Tabs

Version: 1 Type: Tab 0 ratings
1 star 2 stars 3 stars 4 stars 5 stars
comments

Night Santa Went Crazy Tab

E|--11--10-----8--6-----4--4-----1-------1--1-h-3---||
B|-----------------------------------4--------------||
G|--------------------------------------------------||
D|--------------------------------------------------||
A|--------------------------------------------------||
E|--------------------------------------------------||


E|---------------------------------------------------------||
B|---------------------------------------------------------||
G|---------------------------------------------------------||
D|---------------------------------------------------------||
A|---------8-----6--8--8/--10----------8------5--3--13-----||
E|---6--8--6-----4--6--6/--8-----6--8--6------3--1--11-----||

[ Tab from: http://www.guitartabs.cc/tabs/w/weird_al_yankovic/night_santa_went_crazy_tab.html ]
This may look messed up (not to me) but i decided to put the words matched up with the notes...
...Which is why the are spread so far appart...
E|------11-----------10--------------8---------6----------||
B|--------------------------------------------------------||
G|--------------------------------------------------------||
D|--------------------------------------------------------||
A|--------------------------------------------------------||
E|--------------------------------------------------------||
   The work shop is gone now... He decided to bomb it


E|-----4--------------4----1-----------1------1h3---||
B|-------------------------------4------------------||
G|--------------------------------------------------||
D|--------------------------------------------------||
A|--------------------------------------------------||
E|--------------------------------------------------||
 Every where you find pieces of cupid and comet

This is a great Christmas song.
Comments