Weezer - You Gave Your Love To Me Softly Chords & Tabs

 

You Gave Your Love To Me Softly Chords & Tabs

Weezer Chords & Tabs

Version: 2 Type: Tab 0 ratings
1 star 2 stars 3 stars 4 stars 5 stars
comments

You Gave Your Love To Me Softly Tab

   
-----------------------------------------------------------------------------
		You Gave Your Love To Me Softly - =Weezer=
-----------------------------------------------------------------------------

This is my first tab so I thought I would do I song I knew pretty well. 
The other versions of this song that are out there are fine, but it looks
like no one took the time to figure out the proper way to play the solo.
So here it is, I'm 99% sure this is how Rivers plays it :) so enjoy!

Tabbed by: Brandon Williams
Email: Sudox777-at-Hotmail.com

Tuning: Eb

   play this only at the begining
eb|---------------------------------------------------------|
Bb|---------------------------------------------------------|
Gb|-7-7-7-7-7-7-7-7-9-9-9-9-9-9-9-9-------------------------|
Db|-7-7-7-7-7-7-7-7-9-9-9-9-9-9-9-9--4--\-------------------|
Ab|-5-5-5-5-5-5-5-5-7-7-7-7-7-7-7-7--4---\--<==(pick slide)-|
Eb|----------------------------------2----\-----------------|
    You gave your   Love to me       softly                               
   
verse#2 starts with this, just play it twice
eb|-----------------------------------------------------|
Bb|-----------------------------------------------------|
Gb|-7-7-7-7-7-7-7-7-9-9-9-9-9-9-9-9---------------------|
Db|-7-7-7-7-7-7-7-7-9-9-9-9-9-9-9-9--4-4-4-4-4--4-4-4-4-|
Ab|-5-5-5-5-5-5-5-5-7-7-7-7-7-7-7-7--4-4-4-4-4--4-4-4-4-|
Eb|----------------------------------2-2-2-0-2--0-2-0-2-|
    I heard your    heart beating    true
    When i'm    feeling blue and     lonely
    all i have to   do is think of   you

eb|----------------------------------------------------------------|
Bb|----------------------------------------------------------------|
Gb|-7-7-7-7-7-7-7-7-9-9-9-9-9-9-9-9------------------7--7-7--7-7-7-|
Db|-7-7-7-7-7-7-7-7-9-9-9-9-9-9-9-9--7-7-7-7-7-7-7-7-7--7-7--7-7-7-|
Ab|-5-5-5-5-5-5-5-5-7-7-7-7-7-7-7-7--7-7-7-7-7-7-7-7-5--5-5--5-5-5-|
Eb|----------------------------------5-5-5-5-5-5-5-5---------------|
   still your    bijen lingers       on and on and   on
   we had just one night but it lingers on and on and on

[ Tab from: http://www.guitartabs.cc/tabs/w/weezer/you_gave_your_love_to_me_softly_tab_ver_2.html ]
                                                 first verse   second verse
eb|---------------------------------------------||------------||------------|
Bb|---------------------------------------------||------------||------------|
Gb|-----------------9-9-9-9-9-9-9-9-------------||-9-9/11-11\6||------------|
Db|-7-7-7-7-7-7-7-7-9-9-9-9-9-9-9-9--7---7---7--||------------||-7-7-7-7-7-7|
Ab|-7-7-7-7-7-7-7-7-7-7-7-7-7-7-7-7--7---7---7--||-7-7/9---9\4||-7-7-7-7-7-7|
Eb|-5-5-5-5-5-5-5-5------------------5---5---5--||------------||-5-5-5-5-5-5|
    you gave your   love to me      softly                       pm.   . . .



Chorus
eb|------------------------|   eb|-----------------------------|
Bb|------------------------|   Bb|-----------------------------|
Gb|-7--7--7--x-------------|   Gb|-7--7--7--x----------9-9-9---|
Db|-7--7--7--xx-7--7--7----|   Db|-7--7--7--xx-7--7--7-9-9-9---|
Ab|-5--5--5--xx-7--7--7----|   Ab|-5--5--5--xx-7--7--7-7-7-7---|
Eb|-----------x-5--5--5----|   Eb|-----------x-5--5--5---------|
   la la la you said to me         baby don't   you cry iiiii

eb|------------------------------------------------|
Bb|------------------------------------------------|
Gb|-7--7--7--x---------------------------------2---|
Db|-7--7--7--xx-7--7--7-----------4--4--2--2-2-2---|
Ab|-5--5--5--xx-7--7--7-----------4--4--2--2-2-0---|
Eb|-----------x-5--5--5-----------2--2--0--0-0-----|
  put your arms around me child  lay with me tonight


Solo

eb|-------------------------------------------------------------------------|
Bb|14--17-17----------------------------------14----------------------------|
Gb|----------16-18-14-13b---------------14-16-16b18-14h16--14---------------|
Db|-----------------------16-16---14-16------------------16-----------------|
Ab|-------------------------------------------------------------------------|
Eb|-------------------------------------------------------------------------|

eb|-------------------------16----16-16~------------------------------17-17-|
Bb|14-17-17--------------14----14---------14-17-17--12-14----------14-------|
Gb|---------16-18-14-13~----------------------------------14-13-14----------|
Db|-------------------------------------------------------------------------|
Ab|-------------------------------------------------------------------------|
Eb|-------------------------------------------------------------------------|

 Repeat Chorus


eb|----------------------------------|  |---------------------------|
Bb|----------------------------------|  |---------------------------|
Gb|-----------------6-6-6-6-6-6-6-6--|x3|-7-7-7-7-----------------2-|
Db|-4-4-4-4-2-2-2-2-6-6-6-6-6-6-6-6--|  |-7-7-7-7-4-4-4-4-2-2-2-2-2-|
Ab|-4-4-4-4-2-2-2-2-4-4-4-4-4-4-4-4--|  |-5-5-5-5-4-4-4-4-2-2-2-2-0-|
Eb|-2-2-2-2-0-0-0-0------------------|  |---------2-2-2-2-0-0-0-0---| 
    la      la      la                    la      la      la      la


=============================================================================
| /  slide up
| \  slide down
| h  hammer-on
| p  pull-off
| ~  vibrato
| +  harmonic
| x  Mute note
=============================================================================
Comments