Weezer - We Go Together Chords & Tabs

 

We Go Together Chords & Tabs

Weezer Chords & Tabs

Version: 1 Type: Tab 0 ratings
1 star 2 stars 3 stars 4 stars 5 stars
comments

We Go Together Tab

   
Band - Weezer
Song - We Go Together

Intro:
               Guitar 1                       Guitar 2          
E|--------------------------7-5-4-----||-------------------|
B|----------8^-8^-7h9p7-5--------7-5--||-------------------|
G|------6-6---------------------------||------6-6-2-2-4-4--|
D|--2-2-6-6---------------------------||--2-2-6-6-2-2-4-4--|
A|--2-2-4-4---------------------------||--2-2-4-4-0-0-2-2--|
E|--0-0-4-4---------------------------||--0-0-4-4----------|

Verse:
                 Guitar 1                                Guitar 2                          
E|---------------------------------------||-----------------------------------|
B|----------------------------6----------||-----------------------------------|
G|----6-2-4---6-2-4-2-2-2-2-2-6---4-9-8--||----6-2-4---6-2-4-2-2-2-2-2-6---4--|
D|--2-6-2-4-2-6-2-4-2-2-2-2-2-4-4-4------||--2-6-2-4-2-6-2-4-2-2-2-2-2-6-4-4--|
A|--2-4-0-2-2-4-0-2-0-0-0-0-0---4-2------||--2-4-0-2-2-4-0-2-0-0-0-0-0-4-4-2--|
E|--0-4-----0-4-----------------2--------||--0-4-----0-4-----------------2----|
[ Tab from: http://www.guitartabs.cc/tabs/w/weezer/we_go_together_tab.html ]
Chorus:
      Guitar 1                     Guitar 2                                 
E|--------------||----------6----0-----0-----0-----0-----0--|
B|--------------||--6-2---4-6--2---2-----2-----2-----2------|
G|--6-2---4-6-4-||--6-2-2-4-4-1-------1-----1-----1-----1---|
D|--6-2-2-4-6-4-||--4-0-2-2---------------------------------|
A|--4-0-2-2-4-2-||------0-----------------------------------|
E|------0-------||------------------------------------------|

Solo:
E|----------------------7-4-4-7-4-4-7-4----------|
B|------5-4-2-2-4-5-7-7-----------------7-7-5-7--|
G|--1-4------------------------------------------|
D|-----------------------------------------------|
A|-----------------------------------------------|
E|-----------------------------------------------|

Outro:
E|--7-7-7-7-7-9-7-5-4--|
B|---------------------|
G|---------------------|
D|---------------------|
A|---------------------|
E|---------------------|


Verse:
E          C#     A              B
  We go together   and that's the truth.....

Pre-Chorus:
A                                          Ab          F#  B
Looks like a big surprise...heads up(?) in your eyes      yeah.....


Verse
Pre-Chorus

Chorus:
C#        A             E         B                  C#
Here she comes again...there she goes again, that's true.....
Comments