Weezer - We Are All On Drugs Chords & Tabs

 

We Are All On Drugs Chords & Tabs

Weezer Chords & Tabs

Version: 6 Type: Tab

We Are All On Drugs Tab

   
Tuning: Eb Ab Db Gb Bb Eb

[A]Intro (0:00)

guitar 3 Riff A
---------------------------------------------------7--(7)-------------|
-----7-8---7-8---8------8-----8---8----7-8---7-8---7--(7)-7-8---7-8---|
--9------9-----9----6-9---6-9---6----9-----9-----9------------9-----9-|
----------------------------------------------------------------------|
----------------------------------------------------------------------|
----------------------------------------------------------------------|


[B] Verses (0:16,1:05)

guitars 1 and 2 Rhy. Fig. 1
-----------------------------------------------------------------------|
-----------------------------------------------------------------------|
--9-9-9-9-9-9-9-9---6-6-6-6-6-6-6-6--5-5-5-5-5-5-5-5---7-7-7-7-7-7-7-7-|
--9-9-9-9-9-9-9-9---6-6-6-6-6-6-6-6--5-5-5-5-5-5-5-5---7-7-7-7-7-7-7-7-|
--7-7-7-7-7-7-7-7---4-4-4-4-4-4-4-4--3-3-3-3-3-3-3-3---5-5-5-5-5-5-5-5-|
--7-7-7-7-7-7-7-7---4-4-4-4-4-4-4-4--3-3-3-3-3-3-3-3---5-5-5-5-5-5-5-5-|


Guitar 1 and 2 reapeat Rhy. Fig. 1
Guitar 3 reapeats Riff A

Guitars 1 and 2 Rhy. Fig.2
-----------------------------------------------------------------------|
-----------------------------------------------------------------------|
-----------------------------------------------------------------------|
--9-9-9-9-9-9-9-9---6-6-6-6-6-6-6-6--5-5-5-5-5-5-5-5---7-7-7-7-7-7-7-7-|
--7-7-7-7-7-7-7-7---4-4-4-4-4-4-4-4--3-3-3-3-3-3-3-3---5-5-5-5-5-5-5-5-|
-----------------------------------------------------------------------|
  . . . . . . . .   . . . . . . . .  . . . . . . . .   . . . . . . . .


Guitar 1 plays Rhy. Fig. 2 Twice
Guitar 2
-----------------------------------------------------------------------|
-----------------------------------------------------------------------|
-----------------------------------------------------------------------|
--9-9-9-9-9-9-9-9---6-6-6-6-6-6-6-6--5-5-5-5-5-5-5-5---7-5-5-5-5-5-5-5-|
--7-7-7-7-7-7-7-7---4-4-7-7-4-4-4-4--3-3-3-3-3-3-3-3---5-5-5-5-5-5-5-5-|
-----------------------------------------------------------------------|
  . . . . . . . .   . . . . . . . .  . . . . . . . .   . . . . . . . .

Rhy. Fill (1:19)
-------------------|
-------------------|
-------------------|
--7-7-7-7--5---4---|
-------------5---5-|
-------------------|
             .   .

Rhy. Fig. 3
-----------------------------------------------------------------------|
-----------------------------------------------------------------------|
-----------------------------------------------------------------------|
--5-5-5-5-5-5-5-5---6-6-6-6-6-6-6-6--2-2-2-2-2-2-2-2---7-7-7-7-7-7-7-7-|
--7-7-7-7-7-7-7-7---4-4-4-4-4-4-4-4--3-3-3-3-3-3-3-3---5-5-5-5-5-5-5-5-|
-----------------------------------------------------------------------|
  . . . . . . . .   . . . . . . . .  . . . . . . . .   . . . . . . . .

Guitar 1
------------------------------------------------------------------------|
------------------------------------------------------------------------|
-----------------------------------------------------------------x--x---|
--9-9-9-9-9-9-9-9---6-6-6-6-6-6-6-6--5-5-5-5-5-5-5-5---7-7-7-7-7-x--x-7-|
--7-7-7-7-7-7-7-7---4-4-4-4-4-4-4-4--3-3-3-3-3-3-3-3---5-5-5-5-5-x--x-5-|
------------------------------------------------------------------------|
  . . . . . . . .   . . . . . . . .  . . . . . . . .   . . . . .

Guitar 2                                       Natural Harmonics *  * *
------------------------------------------------------------------------|
------------------------------------------------------------------------|
------------------------------------------------------------------------|
--5-5-5-5-5-5-5-5---6-6-6-6-6-6-6-6--2-2-2-2-2-2-2-2---7-7-7-7-7--------|
--3-3-3-3-3-3-3-3---4-4-4-4-4-4-4-4--3-3-3-3-3-3-3-3---5-5-5-5-5-5--5-5-|
--------------------------------------------------------------------5-5-|
  . . . . . . . .   . . . . . . . .  . . . . . . . .   . . . . .

                      Second Time on the 1st Chorus Go Back to verse [B]
[C] Chorus (0:49,1:38)
Guitars 1 and 2
-----------------------------------------------------------------------|
-----------------------------------------------------------------------|
--9-9-9-9-9-9-9-9---6-6-6-6-6-6-6-6--5-5-5-5-5-5-5-5---7-7-7-7-7-7-7-7-|
--9-9-9-9-9-9-9-9---6-6-6-6-6-6-6-6--5-5-5-5-5-5-5-5---7-7-7-7-7-7-7-7-|
--7-7-7-7-7-7-7-7---4-4-4-4-4-4-4-4--3-3-3-3-3-3-3-3---5-5-5-5-5-5-5-5-|
--7-7-7-7-7-7-7-7---4-4-4-4-4-4-4-4--3-3-3-3-3-3-3-3---5-5-5-5-5-5-5-5-|

Reapeat


[D] Bridge (1:54)

Guitars 1 and 2
-----------------------------------------------------------------------|
-----------------------------------------------------------------------|
--2-2-2-2-2-2-2-2---4-4-4-4-4-4-4-4--5-5-5-5-5-5-5-5---5-5-5-5-5-5-5-5-|
--2-2-2-2-2-2-2-2---4-4-4-4-4-4-4-4--5-5-5-5-5-5-5-5---5-5-5-5-5-5-5-5-|
--0-0-0-0-0-0-0-0---2-2-2-2-2-2-2-2--3-3-3-3-3-3-3-3---3-3-3-3-3-3-3-3-|
------------------0-2-2-2-2-2-2-2-2--3-3-3-3-3-3-3-3---3-3-3-3-3-3-3-3-|

----------------------------------------------------------------------|
----------------------------------------------------------------------|
--2-2-2-2-2-2-2-2-----4-4-4-4-4-4-4-4----5-5-5-5-5-5-5-5---7-----8----|
--2-2-2-2-2-2-2-2-----4-4-4-4-4-4-4-4----5-5-5-5-5-5-5-5---7-----8----|
--0-0-0-0-0-0-0-0-----2-2-2-2-2-2-2-2----3-3-3-3-3-3-3-3---5-----6----|
------------------0---2-2-2-2-2-2-2-2----3-3-3-3-3-3-3-3---5-----6----|
[ Tab from: http://www.guitartabs.cc/tabs/w/weezer/we_are_all_on_drugs_tab_ver_6.html ]
[E] Guitar Solo
Guitar 1 and 2 play Rhy. Fig. 1
Guitar 4      ~                  ~~~                      ~~          ~
-------------------------------------------------------------------------|
-----------------------------------------------------12-15(15)-15--15-12-|
----14(1/2b)14-14p12--14-12-------------------12-14----------------------|
---x------------------------14-14(14)--14-14-----------------------------|
--x----------------------------------------------------------------------|
-------------------------------------------------------------------------|

     Guitar 1 Plays Rhy. Fig.1
    Guitar 2 plays Rhy. Fig. 3 Without palm muting
   ~~                   ~~~~          ~~~~          ~~~~~~
--12-------12-------14-12-(12)----14-12(12)----14-12--(12)----|
-----15-12----15-12------------12-----------12----------------|
--------------------------------------------------------------|
--------------------------------------------------------------|
--------------------------------------------------------------|
--------------------------------------------------------------|

------15-14-15-17-15-17(1/2b)(17)--17--17(1/2b)(17)15-17-15-------|
------------------------------------------------------------17-15-|
------------------------------------------------------------------|
------------------------------------------------------------------|
------------------------------------------------------------------|
------------------------------------------------------------------|

[F] Interlude (2:27)

    ~~~~~~~~~~~~~~~~  ~~~~~~~~~~~~~~~~  ~~~~~~~~~~~~~~~~~~
-------------------------------------------------------------------------|
--17----------------17----------------17---------------------------------|
-------------------------------------------------------------------------|
-------------------------------------------------------------------------|
-------------------------------------------------------------------------|pick scrapes
-------------------------------------------------------------------------|
                                                  Gtrs.1,2,and 4 / / /
-----------------------------------------------------------------------|
-----------------------------------------------------------------------|
-----------------------------------------------------------------x-x-x-|
--9-9-9-9-9-9-9-9---6-6-6-6-6-6-6-6--5-5-5-5-5-5-5-5---7-7-7-7-7-x-x-x-|
--7-7-7-7-7-7-7-7---4-4-4-4-4-4-4-4--3-3-3-3-3-3-3-3---5-5-5-5-5-x-x-x-|
--0-0-0-0-0-0-0-0---0-0-0-0-0-0-0-0--0-0-0-0-0-0-0-0---0-0-0-0-0-------|

[G] Outro Chorus (2:43)
Guitars 1 and 2
--------------------------------------------------------------------------|
--------------------------------------------------------------------------|
--9--9--9--9--9--9--9--9---6--6--6--6--6--6--6--6--5--5--5--5--5--5--5--5-|
--9--9--9--9--9--9--9--9---6--6--6--6--6--6--6--6--5--5--5--5--5--5--5--5-|
--7--7--7--7--7--7--7--7---4--4--4--4--4--4--4--4--3--3--3--3--3--3--3--3-|
--7--7--7--7--7--7--7--7---4--4--4--4--4--4--4--4--3--3--3--3--3--3--3--3-|

                       Guitars 1 and 2 play Rhy. Fig. 1 twice
                           Guitar 3
--------------------------------------------------------------|
--------------------------------------------------------------|
--7--7--7--7--7--7--7--7--------------------------------------|
--7--7--7--7--7--7--7--7--------------------------------------|
--5--5--5--5--5--5--5--5--------------------------------------|
--5--5--5--5--5--5--5--5--------------------------------------|

-------------------------------------------------------------|
-----------7--(7)-----------------------7--8-----7--8--------|
--9--6--9----------------------------9--------9--------9-----|
-------------------------------------------------------------|
-------------------------------------------------------------|
-------------------------------------------------------------|

--16--16--16--16--16--16--16--16-|
--x---x---x---x---x---x---x---x--|
--13--13--13--13--13--13--13--13-|
---------------------------------|
---------------------------------|
---------------------------------|

--16--16--16--16--16--16--16--16---15--15--15--15--15--15--15--15-|
--x---x---x---x---x---x---x---x----x---x---x---x---x---x---x---x--|
--13--13--13--13--13--13--13--13---12--12--12--12--12--12--12--12-|
------------------------------------------------------------------|
------------------------------------------------------------------|
------------------------------------------------------------------|

--14--14--14--14--14--14--14--14-|
--x---x---x---x---x---x---x---x--|
--11--11--11--11--11--11--11--11-|
---------------------------------|
---------------------------------|
---------------------------------|

Guitar 3
--16-16-16-16-16-16-16-16--16-16-16-16-16-16-16-16--15-15-15-15-15-15-15-15-|
--x--x--x--x--x--x--x--x---x--x--x--x--x--x--x--x---x--x--x--x--x--x--x--x--|
--13-13-13-13-13-13-13-13--13-13-13-13-13-13-13-13--12-12-12-12-12-12-12-12-|
----------------------------------------------------------------------------|
----------------------------------------------------------------------------|
----------------------------------------------------------------------------|

---14-14-14-14-14-14-14-14---12-|
---x--x--x--x--x--x--x--x----x--|
---11-11-11-11-11-11-11-11---9--|
--------------------------------|
--------------------------------|
--------------------------------|

Guitars 1 and 2
--------------------------------------------------------------------------|
--------------------------------------------------------------------------|
--9--9--9--9--9--9--9--9--6--6--6--6--6--6--6--6----5--5--5--5--5--5--5-5-|
--9--9--9--9--9--9--9--9--6--6--6--6--6--6--6--6----5--5--5--5--5--5--5-5-|
--7--7--7--7--7--7--7--7--4--4--4--4--4--4--4--4----3--3--3--3--3--3--3-3-|
--7--7--7--7--7--7--7--7--4--4--4--4--4--4--4--4----3--3--3--3--3--3--3-3-|

-------------------------------|
-------------------------------|
---7--7--7--7--7--7--7--7------|
---7--7--7--7--7--7--7--7----9-|
---5--5--5--5--5--5--5--5----7-|
---5--5--5--5--5--5--5--5----0-|