Weezer - We Are All On Drugs Chords & Tabs

 

We Are All On Drugs Chords & Tabs

Weezer Chords & Tabs

Version: 5 Type: Tab 0 ratings
1 star 2 stars 3 stars 4 stars 5 stars
comments

We Are All On Drugs Tab

Intro:

e|-------------------|-------------------|
B|----6-7---6-7---7--|------7-----7---7--|
G|--8-----8-----8----|--5-8---5-8---5----|
D|-------------------|-------------------|
A|-------------------|-------------------|
E|-------------------|-------------------|

e|-------------------|---------------------|
B|----6-7---6-7---7--|--------7---6-7------|
G|--8-----8-----8----|------8---8-----8----|
D|-------------------|---------------------|
A|-------------------|---------------------|
E|-------------------|---------------------|   (x2)


Verse/Chorus:
e|-------------------------------------------|
B|-------------------------------------------|
G|--8-8-8-8-8-8-8-8--------------------------|   
D|--8-8-8-8-8-8-8-8-10-10-10-10-10-10-10-10--|
A|--6-6-6-6-6-6-6-6-10-10-10-10-10-10-10-10--|
E|-------------------8--8--8--8--8--8--8--8--|
                                     (This section is palm muted on verse)
e|-------------------------------------------|
B|-------------------------------------------|
G|-------------------------------------------|
D|--9-9-9-9-9-9-9-9-11-11-11-11-11-11-11-11--|
A|--9-9-9-9-9-9-9-9-11-11-11-11-11-11-11-11--|
E|--7-7-7-7-7-7-7-7--9--9--9--9--9--9--9--9--|

Bridge:
e|-----------------------------------------------------------------|
B|-----------------------------------------------------------------|
G|-----------------------------------------------------------------|
D|--6-6-6-6-6-6-6-6-8-8-8-8-8-8-8-8-9-9-9-9-9-9-9-9-9-9-9-9-9-9-9-9|
A|--6-6-6-6-6-6-6-6-8-8-8-8-8-8-8-8-9-9-9-9-9-9-9-9-9-9-9-9-9-9-9-9|
E|--4-4-4-4-4-4-4-4-6-6-6-6-6-6-6-6-7-7-7-7-7-7-7-7-7-7-7-7-7-7-7-7|

e|-----------------------------------------------------------------|
B|-----------------------------------------------------------------|
G|-----------------------------------------------------------------|
D|--6-6-6-6-6-6-6-6-8-8-8-8-8-8-8-8-9-9-9-9-9-9-9-9----11----12|
A|--6-6-6-6-6-6-6-6-8-8-8-8-8-8-8-8-9-9-9-9-9-9-9-9----11----12|
E|--4-4-4-4-4-4-4-4-6-6-6-6-6-6-6-6-7-7-7-7-7-7-7-7-----9----10|

Solo:

e|----------------------------|-------------------------|
B|----------------------------|--------------11-14-14---|
G|--13^----13-11-13-11--------|--------11-13------------|
D|---------------------13-13--|--13---------------------|
A|----------------------------|-------------------------|
E|----------------------------|-------------------------|
[ Tab from: http://www.guitartabs.cc/tabs/w/weezer/we_are_all_on_drugs_tab_ver_5.html ]
e|--------11-9-----11-9--|-----13-11------13-11------13-11------13-11--|
B|----11--------11-------|--11---------11---------11---------11--------|
G|-----------------------|---------------------------------------------|
D|-----------------------|---------------------------------------------|
A|-----------------------|---------------------------------------------|
E|-----------------------|---------------------------------------------|

e|--14-13-14-14b-16-16^-16^-14-16-14-11-9-11-------|
B|-------------------------------------------------|
G|-------------------------------------------------|
D|-------------------------------------------------|
A|-------------------------------------------------|
E|-------------------------------------------------|

Intro:

e|-------------------|-------------------|
B|----6-7---6-7---7--|------7-----7---7--|
G|--8-----8-----8----|--5-8---5-8---5----|
D|-------------------|-------------------|
A|-------------------|-------------------|
E|-------------------|-------------------|

e|-------------------|---------------------|
B|----6-7---6-7---7--|--------7---6-7------|
G|--8-----8-----8----|-8----8---8-----8----|
D|-------------------|---------------------|
A|-------------------|---------------------|
E|-------------------|---------------------|   (x2)

Chorus:

e|------------------------------------------------|
B|------------------------------------------------|
G|-x-x-x-8-8-8-8-8-8-8-8--------------------------|   
D|-x-x-x-8-8-8-8-8-8-8-8-10-10-10-10-10-10-10-10--|
A|-x-x-x-6-6-6-6-6-6-6-6-10-10-10-10-10-10-10-10--|
E|------------------------8--8--8--8--8--8--8--8--|
                                     
e|-------------------------------------------|
B|-------------------------------------------|
G|-------------------------------------------|
D|--9-9-9-9-9-9-9-9-11-11-11-11-11-11-11-11--|
A|--9-9-9-9-9-9-9-9-11-11-11-11-11-11-11-11--|   
E|--7-7-7-7-7-7-7-7--9--9--9--9--9--9--9--9--| 

--8|
--6|  (Finish Chord)
--6|

Outro: (played along with chorus at the end)

e|------------|-------------------|
B|------6-----|----6-7---6-7------|
G|--5-8-------|--8-----8-----8----|
D|------------|-------------------|
A|------------|-------------------|
E|------------|-------------------|


----------------------------------------------------------------|
-8-8-8-8-8-8-8-8-8-8-8-8-8-8-8-8-7-7-7-7-7-7-7-7-6-6-6-6-6-6-6-6|
----------------------------------------------------------------|
----------------------------------------------------------------|
----------------------------------------------------------------|
----------------------------------------------------------------| (x2)

---|
---|
--8|   (Finish Note)
---|
---|
---|

tabbed by PC
Comments