Weezer - Undone (the Sweater Song) Chords & Tabs

 

Undone (the Sweater Song) Chords & Tabs

Weezer Chords & Tabs

Version: 4 Type: Tab 0 ratings
1 star 2 stars 3 stars 4 stars 5 stars
comments

Undone (the Sweater Song) Tab

Album: The Blue Album
Artist: Weezer
Tabber: SOADRoCkS007

Dude, this song is just odd...bt it's cool any way... a kinda weird riff, but has a good sound...pretty fun stuff...

Weird talking part
E------------------------------------------------------------
B----------0-------0--------0--------0-----------------------
G--------3-------3--------3--------3-------------------------
D------0-------0--------0--------0---------------------------
A------------3--------5--------3-----------------------------
E---3--------------------------------------------------------
[ Tab from: http://www.guitartabs.cc/tabs/w/weezer/undone_the_sweater_song_tab_ver_4.html ]
Verse (clean)
E------------------------------------------------------------
B------------------------------------------------------------
G-----------------4-4-4-4-4-4---6-6-6-6-6-6------------------
D---4-4-4-4-4-4---4-4-4-4-4-4---6-6-6-6-6-6------------------
A---4-4-4-4-4-4---2-2-2-2-2-2---4-4-4-4-4-4------------------
E---2-2-2-2-2-2----------------------------------------------

Chorus (Distortion)
E------------------------------------------------------------
B------------------------------------------------------------
G-----------------4-4-4-4-4-4---6-6-6-6-6-6------------------
D---4-4-4-4-4-4---4-4-4-4-4-4---6-6-6-6-6-6------------------
A---4-4-4-4-4-4---2-2-2-2-2-2---4-4-4-4-4-4------------------
E---2-2-2-2-2-2----------------------------------------------
Comments