Weezer - Undone (the Sweater Song) Chords & Tabs

 

Undone (the Sweater Song) Chords & Tabs

Weezer Chords & Tabs

Version: 1 Type: Bass Tab 0 ratings
1 star 2 stars 3 stars 4 stars 5 stars
comments

Undone (the Sweater Song) Bass Tab

Song:  UNDONE--THE SWEATER SONG
Artist:  WEEZER
Tabbed by: Woody
Email: woody3333@hotmail.com

Intro

G|----------------------------------------
D|----------------------------------------
A|--------2----2-4----4-2----2------------
E|-2----2---------------------------------

Verse/Chorus

G|----------------------------------------
D|----------------------------------------
A|--------2-2-2-2-4-4-4-4-2-2-2-2---------
E|-2-2-2-2--------------------------------

Interlude
[ Tab from: http://www.guitartabs.cc/tabs/w/weezer/undone_the_sweater_song_btab.html ]
G|----------------------------------------
D|----------------------------------------
A|---------555-5-55777-7-77555-5-55-------
E|-555-5-55-------------------------------


This comes just before the guitar solo

G|----------------------------------------
D|----------------------------------------
A|---------2-2-2-2-4-4-4-4-2-2-0-0---------
E|-2-2-2-2--------------------------------

Outro

G|----------------------------------------
D|----------------------------------------
A|---------222222224444444422222222-------
E|-22222222-------------------------------

It's very easy. But very fun.
Comments