Weezer - Tired Of Sex Solo Chords & Tabs

 

Tired Of Sex Solo Chords & Tabs

Weezer Chords & Tabs

Version: 1 Type: Tab 0 ratings
1 star 2 stars 3 stars 4 stars 5 stars
comments

Tired Of Sex Solo Tab

#----------------------------------PLEASE NOTE--------------------------------#
#This file is the author's own work and represents their interpretation of the#
#song. You may only use this file for private study, scholarship, or research.#
#-----------------------------------------------------------------------------#
#-- File created with Instab - http://www.pconline.com/~smcarey/instab.html --#
#-----------------------------------------------------------------------------#

Author/Artist: Rivers Cuomo
Title: Tired Of Sex Solo
Album: Pinkerton
Transcribed by: Brady Custis
Email: weezeppelin88@aol.com

its half step down
i think this tab clears up some places the guy before me might of messed up
on he did a very good job but i this one is better and easier to follow

------------------------------------------------------------------------------
--12-10h12p10-12--10h12p10-12--10h12p10-12----15b17-15--12h15p12--------------
------------------------------------------------------------------12p14p12----
------------------------------------------------------------------------------
------------------------------------------------------------------------------
------------------------------------------------------------------------------
                                                                              
[ Tab from: http://www.guitartabs.cc/tabs/w/weezer/tired_of_sex_solo_tab.html ]
------------------------------------------------------------------------------
-------15---------------------------------------------------------------------
-14/16----16-14-14h16p14-12h14p12----12h14p12----12h14p12----12v--12-12-12----
----------------------------------14----------14----------14------------------
------------------------------------------------------------------------------
------------------------------------------------------------------------------
                                                                  fast        

------------------------------------------------------------------------------
------------------------------------------------------------------------------
-12-12-14-14-14-14--16-16-16-16-17-17-17-17-19-19-19-19-21-21-21-21-21-21-21--
------------------------------------------------------------------------------
------------------------------------------------------------------------------
------------------------------------------------------------------------------
 picking here................................................................ 

--------19-22b25-b25-b25-b25-b25-b25-b25-b25-b25-b25-b25-b25-b25-b25-b25-b25--
------------------------------------------------------------------------------
-21---------------------------------------------------------------------------
------------------------------------------------------------------------------
------------------------------------------------------------------------------
------------------------------------------------------------------------------
 ..         not sure bout amount of times above, just listen to the song adn  

-b25-b25----------------------------------------------------------------------
------------------------20h22p20--22b24-20h22p20-22b24------------------------
------------------------------------------------------------------------------
------------------------------------------------------------------------------
------------------------------------------------------------------------------
------------------------------------------------------------------------------
 you'll get it                                                                

Comments