Weezer - The World Has Turned And Left Me Here Chords & Tabs

 

The World Has Turned And Left Me Here Chords & Tabs

Weezer Chords & Tabs

Version: 4 Type: Bass Tab 0 ratings
1 star 2 stars 3 stars 4 stars 5 stars
comments

The World Has Turned And Left Me Here Bass Tab

Weezer - The World Has Turned And Left Me Here
Submitted By: Bert
EMail: loser_guitarist@hotmail.com
album: The Blue Album (1994)

There are only 2 parts to this song: intro/chorus & verse

intro/chorus:
G|----------7-7-7-----4-----5-5-5------------------------------------|
D|-----5-------------------------------------------------------------|
A|--------5-------2------3-------------------------------------------|
E|-3-----------------------------------------------------------------|
[ Tab from: http://www.guitartabs.cc/tabs/w/weezer/the_world_has_turned_and_left_me_here_btab_ver_4.html ]
verse:
G|----------------------5---5----------------------5-----------------|
D|------------9---------------------7---7--------5---5---------------|
A|-------7---------3------3---3-0-----0---0--------------------------|
E|-0--------0---0---------------------------3------------------------|

G|-----------4---------------5---------------4-----------------7-7---|
D|-------4-----4---------5-----5---------4-----4-------5-5-0-0-------|
A|-2-2-2---2-----2-3-3-3---3-----3-2-2-2---2-----2-3-3---------------|
E|-------------------------------------------------------------------|

you just go alternate between those parts for four minutes.

tabbed out 10/28/02 by =bert=
Comments