Weezer - The Good Life Chords & Tabs

 

The Good Life Chords & Tabs

Weezer Chords & Tabs

Version: 3 Type: Bass Tab 0 ratings
1 star 2 stars 3 stars 4 stars 5 stars
comments

The Good Life Bass Tab

   
Please enjoy these Tabs ~Tim 


FIRST VERSE (come in when the vocals come in)
Gb|-------------------------------------------------|
Db|-------------------------------------------------|
Ab|-------------5--5--5-5-5-------------------------|x2
Eb|-3--3--3-3-3-------------5--5--5-5-5-0--0--0-0-0-|

Gb|---------------------------------------------------|
Db|-2-3-5---------------------------------------------|
Ab|-------------5---5-0-----------------5---5-0-------|
Eb|-------3---3-----------5-0---0-3---3-----------5-0-|

Gb|------------------------------------------|
Db|------------------------------------------|
Ab|---------5--5-----------------------------|
Eb|-0-3---3------5-5-5-5-7-7-7-7-7-7-7-7-/-3-|

SECOND VERSE
Gb|-------------------------------------------------|
Db|-------------------------------------------------|
Ab|-------------5--5--5-5-5-------------------------|x2
Eb|-3--3--3-3-3-------------5--5--5-5-5-0--0--0-0-0-|

Gb|-------------------------------------------------|
Db|-------------------------------------------------|
Ab|-/?\-------5---5-0-----------------5---5-0-------|
Eb|-----3---3-----------5-0---0-3---3-----------5-0-|

Gb|------------------------------------|
Db|------------------------------------|
Ab|---------5--5-0---------------------|
Eb|-0-3---3----------5-7-7-7-7-7-7-5-7-|

CHORUS
Gb|-----------------------------------------------------------------|
Db|-----------------------------------------------------------------|
Ab|-3-3-3-3-3-3-3-3-5-5-5-5-5-5-5-5---------3-3-5-5-7-7-7-7-5-5-3-3-|
Eb|---------------------------------3-3-3-3-------------------------|

Gb|-----------------------------------------------------------------|
Db|-----------------------------------------------------------------|
Ab|-------------3-3-5-5-5-5-5-5-5-5---------3-3-5-5-7-7-7-7-5-5-3-3-|
Eb|-5-5-5-5-5-5---------------------3-3-3-3-------------------------|

Gb|-----------------------------------------------------------------|
Db|-----------------------------------------------------------------|
Ab|-------------3-3-5-5-5-5-5-5-5-5---------3-3-5-5-7-7-7-7-5-5-3-3-|
Eb|-5-5-5-5-5-5---------------------3-3-3-3-------------------------|

Gb|-----------------|
Db|-----------------|
Ab|-----------------| (followed directly by guitar fill)
Eb|-5-5-5-5-5-5-5-5-|

THIRD VERSE
Gb|----------------------------------------|
Db|----------------------------------------|
Ab|----------------------------------------|
Eb|-3--3-3-0--3--3-3-0--3--3-3-0--3--3-3-0-|

Gb|-------------------------------------------------|
Db|-------------------------------------------------|
Ab|-------------5--5--5-5-5-------------------------|x2
Eb|-3--3--3-3-3-------------5--5--5-5-5-0--0--0-0-0-|

Gb|---------------------------------------------------|
Db|-2-3-5---------------------------------------------|
Ab|-------------5---5-0-----------------5---5-0-------|
Eb|-------3---3-----------5-0---0-3---3-----------5-0-|
[ Tab from: http://www.guitartabs.cc/tabs/w/weezer/the_good_life_btab_ver_3.html ]
Gb|--------------------------------------|
Db|--------------------------------------|
Ab|---------5--5-------------------------|
Eb|-0-3---3------5-5-5-5-7-7-7-7-7-7-5-7-|

AFTER SECOND CHORUS
Gb|------------------------|
Db|------------------------|
Ab|-7-7--7-7--7-7--7-7--7/-|
Eb|------------------------|

GUITAR SOLO
Gb|---------------------------------------------|
Db|---------------------------------------------|
Ab|---4-3---2-1---4-3---2-1---4-3---2-1---4-3---|
Eb|-4-----2-----0-----0-----4-----2-----0-----2-|

Gb|---------------------------------|
Db|---------------------------------|
Ab|-----------------2-2-2-2-2-2-2-2-|
Eb|-2-2-2-2-2-2-2-2-----------------|

(slows down)
Gb|------------------------------|
Db|------------------------------|
Ab|-3--3-3--5--5-5---------------|
Eb|-----------------3--3-5-3-2-0-|

Gb|---------------------------------|
Db|---------------------------------|
Ab|-------------5---------2-0-------|
Eb|-0-2-3-5---5-----5-3-------3-2-0-|

BRIDGE
Gb|-----------------------5h7-5-----------------------------------|
Db|-----------------------------7-5-5-5-5-5-5/7-5-2-2-2-2-2-2-2-2-|
Ab|-----------------5-5-5-----------------------------------------|
Eb|-5-5-5-5-5-5-5-5-----------------------------------------------|

Gb|-----------------------------------------------------------------|
Db|-----------------------------------------------------------------|
Ab|-----------------5-5-5-5-5-5-5-5---------------------------------|
Eb|-5-5-5-5-5-5-5-5-----------------3-3-3-3-3-3-3-3-0-0-0-0-0-0-0-0-|

Gb|-------------------|
Db|-------------------|
Ab|-------------------|
Eb|-5-5-5-5-5-5-5-5-7-|

FINAL CHORUS
Gb|-----------------------------------------------------------------|
Db|-----------------------------------------------------------------|
Ab|-3-3-3-3-3-3-3-3-5-5-5-5-5-5-5-5---------3-3-5-5-7-7-7-7-5-5-3-3-|
Eb|---------------------------------3-3-3-3-------------------------|

Gb|---------------------------------------------------------------------------------|
Db|---------------------------------------------10-10-12-12-14-14-14-14-12-12-10-10-|
Ab|-------------3-3-5-5-5-5-5-5-5-5-10-10-10-10-------------------------------------|
Eb|-5-5-5-5-5-5---------------------------------------------------------------------|

Gb|-------------5-5-7-7-7-7-7-7-7-7---------5-5-7-7-9-9-9-9-5-5-3-3-|
Db|-7-7-7-7-7-7---------------------5-5-5-5-------------------------|
Ab|-----------------------------------------------------------------|
Eb|-----------------------------------------------------------------|

Gb|-------------5-5-7-7-7-7-7-7-7-7---------5-5-7-7-9-9-9-9-9-9-9-9-|
Db|-7-7-7-7-7-7---------------------5-5-5-5-------------------------|
Ab|-----------------------------------------------------------------|
Eb|-----------------------------------------------------------------|

Gb|-7h9-9-9-9-7h9-9-9-9-7h9-9-9-9-7h9-9-9-9-|
Db|-----------------------------------------|
Ab|-----------------------------------------|
Eb|-----------------------------------------|

OUTRO
Gb|---------------------|
Db|---------------------|
Ab|-/7-7--/7-7--/7-7-7~-| ~=vibrato
Eb|---------------------|
Sexi lexi!
Comments