Weezer - The Dawn Chords & Tabs

 

The Dawn Chords & Tabs

Weezer Chords & Tabs

Version: 1 Type: Tab 0 ratings
1 star 2 stars 3 stars 4 stars 5 stars
comments

The Dawn Tab

Artist: Weezer
Song: The Dawn
CD: Not out yet
Tabs by:  Peter Schmiedicke and Pat Steidl


Intro		Guitar 1
e --0-2-0-2----------------------------------------------------------------
b ------------5-3-2-3--3-2-0-2--------2-3-2-3-2-0--------------------------
g -----------------------------------------------------4-2-1-2-------------     x 2
d -------------------------------------------------------------------------
a -------------------------------------------------------------------------
E -------------------------------------------------------------------------
		Guitar 2
e -------------------------------------------------------------------------
b --2-2-2-2-2-2-2-2-2-2-2-----2/3----2-2-2-2-2-2-2-2-2----2/3--------------
g -------------------------------------------------------------------------     x 2
d -------------------------------------------------------------------------
a -------------------------------------------------------------------------
E -------------------------------------------------------------------------




		Guitar 1	x 4	Guitar 2	x 2	
e -------------------------------------------------------------------------
b -------------------------------------------------------------------------
g --7-7---7-----9-----7-7---7-----9-----7-7----9---------------------------
d --7-7---7-----9-----7-7---7-----9-----7-7----9---------------------------
a --5-5---5-----7-----5-5---5-----7-----5-5----7---------------------------
E -------------------------------------------------------------------------
		Guitar 2	x 2
e -------------------------------------------------------------------------
b -------------------------------------------------------------------------
g --11-11--11---11---11-11--11---11---11-11--11----------------------------
d --11-11--11---11---11-11--11---11---11-11--11----------------------------
a ---9--9----9----9----9---9---9----9-----9--9---9-------------------------
E -------------------------------------------------------------------------

e -------------------------------------------------------------------------
b -------------------------------------------------------------------------
g --11-11--11---11---13-13--13---13---13-13--13----------------------------
d --11-11--11---11---13-13--13---13---13-13--13----------------------------
a --9---9---9-----9---11-11--11---11---11-11--11---------------------------
E -------------------------------------------------------------------------


Intro / again	Guitar 1
e --0-2-0-2----------------------------------------------------------------
b ------------5-3-2-3--3-2-0-2--------2-3-2-3-2-0--------------------------
g -----------------------------------------------------4-2-1-2-------------     x 2
d -------------------------------------------------------------------------
a -------------------------------------------------------------------------
E -------------------------------------------------------------------------	
	Guitar 2
e -------------------------------------------------------------------------
b --2-2-2-2-2-2-2-2-2-2-2-----2/3----2-2-2-2-2-2-2-2-2----2/3--------------
g -------------------------------------------------------------------------     x 2
d -------------------------------------------------------------------------
a -------------------------------------------------------------------------
E -------------------------------------------------------------------------



		Guitar 1	x 4		Guitar 2	x 2	
e -------------------------------------------------------------------------
b -------------------------------------------------------------------------
g --7-7---7-----9-----7-7---7-----9-----7-7----9---------------------------
d --7-7---7-----9-----7-7---7-----9-----7-7----9---------------------------
a --5-5---5-----7-----5-5---5-----7-----5-5----7---------------------------
E -------------------------------------------------------------------------

		Guitar 2	x 2
e -------------------------------------------------------------------------
b -------------------------------------------------------------------------
g --11-11--11---11---11-11--11---11---11-11--11----------------------------
d --11-11--11---11---11-11--11---11---11-11--11----------------------------
a ---9--9----9----9----9---9---9----9-----9--9---9-------------------------
E -------------------------------------------------------------------------

e -------------------------------------------------------------------------
b -------------------------------------------------------------------------
g --11-11--11---11---13-13--13---13---13-13--13----------------------------
d --11-11--11---11---13-13--13---13---13-13--13----------------------------
a ---9--9----9----9----11-11--11---11---11-11--11--------------------------
E -------------------------------------------------------------------------


		Guitar 2
e --------------2--------------------------2-------------------------------
b ----2-----2--------------------2-----2-----------------------------------
g --2----2---------2-2-2-2-2-2----2---------2-2-2-2------------------------
d -------------------------------------------------------------------------
a -------------------------------------------------------------------------
E -------------------------------------------------------------------------

		Guitar 1
e -------------------------------------------------------------------------
b -------------------------------------------------------------------------
g --9-9-9-9----7-7-7-7----5-5-5-5----7-7-7-7----9-9-9-9-9-9-9-9------------
d --9-9-9-9----7-7-7-7----5-5-5-5----7-7-7-7----9-9-9-9-9-9-9-9------------
a --7-7-7-7----5-5-5-5----3-3-3-3----5-5-5-5----7-7-7-7-7-7-7-7------------
E -------------------------------------------------------------------------
[ Tab from: http://www.guitartabs.cc/tabs/w/weezer/the_dawn_tab.html ]
e -------------------------------------------------------------------------
b -------------------------------------------------------------------------
g --5-5-5-5----7-7-7-7-----------------------------------------------------
d --5-5-5-5----7-7-7-7-----------------------------------------------------
a --3-3-3-3----5-5-5-5-----------------------------------------------------
E -----------------------5-5-5-5---3-3-3-3---2-2-2-2---0-0-0-0-------------



Intro / again	Guitar 1
e --0-2-0-2----------------------------------------------------------------
b ------------5-3-2-3--3-2-0-2--------2-3-2-3-2-0--------------------------
g -----------------------------------------------------4-2-1-2-------------    x 2
d -------------------------------------------------------------------------
a -------------------------------------------------------------------------
E -------------------------------------------------------------------------
		Guitar 2
e -------------------------------------------------------------------------
b --2-2-2-2-2-2-2-2-2-2-2-----2/3----2-2-2-2-2-2-2-2-2----2/3--------------
g -------------------------------------------------------------------------    x 2
d -------------------------------------------------------------------------
a -------------------------------------------------------------------------
E -------------------------------------------------------------------------


		Guitar 1	x 4		Guitar 2	x 2	
e -------------------------------------------------------------------------
b -------------------------------------------------------------------------
g --7-7---7-----9-----7-7---7-----9-----7-7----9---------------------------
d --7-7---7-----9-----7-7---7-----9-----7-7----9---------------------------
a --5-5---5-----7-----5-5---5-----7-----5-5----7---------------------------
E -------------------------------------------------------------------------

		Guitar 2	x 2
e -------------------------------------------------------------------------
b -------------------------------------------------------------------------
g --11-11--11---11---11-11--11---11---11-11--11----------------------------
d --11-11--11---11---11-11--11---11---11-11--11----------------------------
a ---9--9----9----9----9---9---9----9-----9--9---9-------------------------
E -------------------------------------------------------------------------

e -------------------------------------------------------------------------
b -------------------------------------------------------------------------
g --11-11--11---11---13-13--13---13---13-13--13----------------------------
d --11-11--11---11---13-13--13---13---13-13--13----------------------------
a ---9--9---9-----9----11-11--11---11---11-11--11--------------------------
E -------------------------------------------------------------------------


		Guitar 2
e --------------2-------------------------2--------------------------------
b ----2-----2--------------------2----2------------------------------------
g --2----2---------2-2-2-2-2-2----2--------2-2-2-2-------------------------
d -------------------------------------------------------------------------
a -------------------------------------------------------------------------
E -------------------------------------------------------------------------

		Guitar 1
e -------------------------------------------------------------------------
b -------------------------------------------------------------------------
g --9-9-9-9----7-7-7-7----5-5-5-5----7-7-7-7----9-9-9-9-9-9-9-9------------
d --9-9-9-9----7-7-7-7----5-5-5-5----7-7-7-7----9-9-9-9-9-9-9-9------------
a --7-7-7-7----5-5-5-5----3-3-3-3----5-5-5-5----7-7-7-7-7-7-7-7------------
E -------------------------------------------------------------------------

e -------------------------------------------------------------------------
b -------------------------------------------------------------------------
g --5-5-5-5----7-7-7-7-----------------------------------------------------
d --5-5-5-5----7-7-7-7-----------------------------------------------------
a --3-3-3-3----5-5-5-5-----------------------------------------------------
E -------------------------5-5-5-5---3-3-3-3---2-2-2-2---0-0-0-0-----------



		Guitar 1
e -------------------------------------------------------------------------
b -------------------------------------------------------------------------
g --------------------------------------7-7-7------------7-7-7-------------
d --7-7-7---4-4-4---7-7-7---4-4-4---7-7-7---9-9-9---7-7-7---9-9-9----------
a --7-7-7---4-4-4---7-7-7---4-4-4---5-5-5---9-9-9---5-5-5---9-9-9----------
E --5-5-5---2-2-2---5-5-5---2-2-2------------7-7-7------------7-7-7--------

		Guitar 2
e -------------------------------------------------------------------------
b -------------------------------------------------------------------------
g --6-6-6---6-6-6---6-6-6---6-6-6---7-7-7---7-7-7---7-7-7---7-7-7---   Palm
d --6-6-6---6-6-6---6-6-6---6-6-6---7-7-7---7-7-7---7-7-7---7-7-7---   Mute
a -------------------------------------------------------------------------
E -------------------------------------------------------------------------


	Guitar 1					Guitar 2
e -------------------------			e ------------------------------
b -------------------------			b ------------------------------
g ---9-9-9---9-9-9---------			g ---13-13-13---13-13-13--------
d ---9-9-9---9-9-9---------			d ---13-13-13---13-13-13--------
a ---7-7-7---7-7-7---------			a ---11-11-11---11-11-11--------
E -------------------------			E ------------------------------


	Guitar 1 & 2
e -------------------------------------------------------------------------
b -------------------------------------------------------------------------
g ----------7-7------------9-9--------------------------------------------- Slide the
d --7-7----7-7----7-7----9-9----7-7----7-7----7-7-------------------------- End
a --7-7----5-5----7-7----7-7----7-7----7-7----7-7--------------------------
E --5-5-----------5-5------------5-5----5-5-----5-5------------------------
					  Repeat
					  This one 
					      x 3	
Comments