Weezer - Take Control Chords & Tabs

 

Take Control Chords & Tabs

Weezer Chords & Tabs

Version: 1 Type: Tab 0 ratings
1 star 2 stars 3 stars 4 stars 5 stars
comments

Take Control Tab

Song - Take Control
From the Weezer cd Maladroit
Tabbed by Ed D
 
Main Riff                            
 E |------------------|-----------------------|
 B |------------------|-----------------------|
 G |------------------|-----------------------|
 D |6---6---4-6-4-6---|4-6-4-6-4-6-4-9-6-(4-5)|
 A |6---6---4-6-4-6---|4-6-4-6-4-6-4-9-6------|
 E |------------------|-----------------------|

Verse is same as Main Riff with palm mute

Chorus
 E |-----------------------------------------|
 B |-----------------------------------------|
 G |--55555555--77777777--55555555--77777777-|
 D |--55555555--77777777--55555555--77777777-|
 A |--33333333--55555555--33333333--55555555-|
 E |-----------------------------------------|

   |---------------------------------------|
   |---------------------------------------|
   |---------------------55555555----------|
   |-77777777--55555555--55555555-5-55-55-5|
   |-77777777--55555555--33333333-5-55-55-5|
   |-55555555--33333333-----------3-33-33-3|
[ Tab from: http://www.guitartabs.cc/tabs/w/weezer/take_control_tab.html ]
Solo
 E |---------------------------------
 B |---------------------------------
 G |----------9----------------------
 D |--10-9-10---10-9-10-9----9-------
 A |----------------------12---12-10-
 E |---------------------------------

   |----------------------------------
   |----------------------------------
   |----------------------------------
   |-----------------------------9--9-
   |----10----10-----10-12--12----12--
   |12-----12-----12------------------


   |----------------------------------
   |----------------------------------
   |---------------------9----9-9-10-9
   |---9-10-10--12-10-12---12---------
   |12--------------------------------
   |----------------------------------

   |----------------------------------
   |----------------------------------
   |10-9---12-10-9-10-9---9-----------
   |-----12-------------12--12-10-12--
   |----------------------------------
   |----------------------------------

   |-------------------------|
   |-------------------------|
   |-------------------------|
   |10-9-10-9--9-10----------|
   |---------12----12-10-12--|
   |-------------------------|
Comments