Weezer - Sweater Song Chords & Tabs

 

Sweater Song Chords & Tabs

Weezer Chords & Tabs

Version: 2 Type: Tab 2 ratings
1 star 2 stars 3 stars 4 stars 5 stars
comments

Sweater Song Tab

this is my first tab so go easy on me

intro...
Guitar 1
---------------------------------
--------0-------0-----0-------0-
------3-------3------5------3---
----2-------2------4------2-----
--------------------------------
--------------------------------

intro...
Guitar 2
--------------------------------
--------------------------------
--------------------------------
--------------------------------
----------3------5------3-------
--3------------------------------


try to play

verse 1
----3----3----5----3
----3----4----6----4
----4----5----7----5   4 strums per chord all down strokes
----5----5----7----5             2 times before...
----5----3----5----3                (acustic)
----3----x----x----x


[ Tab from: http://www.guitartabs.cc/tabs/w/weezer/sweater_song_tab_ver_2.html ]
verse 2
----x----x----x----x
----x----x----x----x
----x----5----7----5       4 strums per chord all down strokes
----5----5----7----5         to fill untill the next riff
----5----3----5----3                 (electric)
----3----x----x----x


twards the end the power chord transition changes verry slightly...


verse 3
----x-x-x-x----x-x-x-x----x-x-x-x----x-x-x-x
----x-x-x-x----x-x-x-x----x-x-x-x----x-x-x-x
----x-x-x-x----5-5-5-5----7-7-7-7----5-5-3-3
----5-5-5-5----5-5-5-5----7-7-7-7----5-5-3-3
----5-5-5-5----3-3-3-3----5-5-5-5----3-3-1-1
----3-3-3-3----x-x-x-x----x-x-x-x----x-x-x-x


I dont know the solo part for Guitar 1 but Guitar 2 just plays the basic power chords through the solo
and except for the intro riff. solo and ending Guitar 1 and 2 play in unison

durring the soloit may sound good to double up the chords (depends on your taste)

the overall structure goes...
Intro
verse 1
verse 2 
intro
verse 1
verse 2
verse 3
verse 2

but thats it. pretty simple song if you no the solo the ending "soloish" part or have any ideas that you 
like better than mine just leave a comment on it as a correction, dont e-mail me, i dont check it 
Comments