Weezer - Sweater Song Chords & Tabs

 

Sweater Song Chords & Tabs

Weezer Chords & Tabs

Version: 1 Type: Tab 8 ratings
1 star 2 stars 3 stars 4 stars 5 stars
comments

Sweater Song Tab

Song:The Sweater Song
Band:Weezer
Tab By:p_predictable_ae@hotmail.com
Instrument:Guitar

Intro
e---------------------------------
B--------0-------0-----0-------0-
G------3-------3------5------3---
D----2-------2------4------2-----
A----------3------5------3-------
E--3------------------------------
[ Tab from: http://www.guitartabs.cc/tabs/w/weezer/sweater_song_tab.html ]
Verse
e-----------
B-----------
G----3-5-3--
D--3-2-4-2--
A--2-3-5-3--
E--3---------
Listen to the song for amount of times to play chord sequence.

Chorus
Same as verse

Solo
e--------------------
B--2---2------------
G--2---2-2----------
D--0-2-0-2----------
A----2---0----------
E----0---------------
Play this 4 times during the solo.

This is  probably the easiest  version of the song, seeing as it's 2nd guitar. 
Email me  if  you  have questions.
Comments