Weezer - Suzanne Chords & Tabs

 

Suzanne Chords & Tabs

Weezer Chords & Tabs

Version: 3 Type: Tab 0 ratings
1 star 2 stars 3 stars 4 stars 5 stars
comments

Suzanne Tab

"Suzanne" by Weezer

|-------------------------------------------------|
|-------------------------------------------------|
|-----------------------6-6-6-6-6-6-8-8-8-8-8-8---|
|-----6-6-6-6-6-6-6-6-6-6-6-6-6-6-6-8-8-8-8-8-8---|
|-----6-6-6-6-6-6-6-6-6-4-4-4-4-4-4-6-6-6-6-6-6---|
|-----4-4-4-4-4-4-4-4-4-4-4-4-4-4-4-6-6-6-6-6-6---|

|-------------------------------------------------------------|
|-------------------------------------------------------------|
|-------------------------------6-6-6-6-6-6-------------------|
|-3-3-3-3-3-3-3-3-3-6-6-6-6-6-6-6-6-6-6-6-6-3-3-3-3-3-3-3-3-3-|
|-3-3-3-3-3-3-3-3-3-6-6-6-6-6-6-4-4-4-4-4-4-3-3-3-3-3-3-3-3-3-|
|-1-1-1-1-1-1-1-1-1-4-4-4-4-4-4-4-4-4-4-4-4-1-1-1-1-1-1-1-1-1-|


|---------------------------------------------------------------|
|---------------------------------------------------------------|
|---------------------------------------------------------------|
|-5-5-5-5-5-5-6-6-6-6-6-6-8-8-8-8-8-8---------------------------|
|-5-5-5-5-5-5-6-6-6-6-6-6-8-8-8-8-8-8---------------------------|
|-3-3-3-3-3-3-4-4-4-4-4-4-6-6-6-6-6-6---------------------------|

|-------------------------------------------------|
|-------------------------------------------------|
|-----------------------6-6-6-6-6-6-8-8-8-8-8-8---|
|-----6-6-6-6-6-6-6-6-6-6-6-6-6-6-6-8-8-8-8-8-8---|
|-----6-6-6-6-6-6-6-6-6-4-4-4-4-4-4-6-6-6-6-6-6---|
|-----4-4-4-4-4-4-4-4-4-4-4-4-4-4-4-6-6-6-6-6-6---|

|---------------------------------------------------|
|---------------------------------------------------|
|---------------------------------------------------|
|---------------------------------------------------|
|-3-3-3-3-3-3-3-3-3-3-3-3/8-8-8-8-8-8-8-8-8-8-8-8---|
|-1-1-1-1-1-1-1-1-1-1-1-1/6-6-6-6-6-6-4-4-4-4-4-4---|


|--------------------------------------------------|
|--------------------------------------------------|
|--------------------------------------------------|
|--------------------------------------------------|
|-6-6-6-6-6-6-6-6-6-6-6-6-6-6-6-6-6-6-6-6-6-6-6-6--|
|-3-3-3-3-3-3-3-3-3-3-3-3-4-4-4-4-4-4-3-3-3-3-3-3--|


|---------------------------------------------------|
|---------------------------------------------------|
|---------------------------------------------------|
|---------------------------------------------------|
|-3-3-3-3-3-3-3-3-3-3-3-3/8-8-8-8-8-8-8-8-8-8-8-8---|
|-1-1-1-1-1-1-1-1-1-1-1-1/6-6-6-6-6-6-4-4-4-4-4-4---|

|---------------------------|
|---------------------------|
|---------------------------|
|---------------------------|
|-6-6-6-6-6-6-6-6-6-6-6-6---|
|-3-3-3-3-3-3-3-3-3-3-3-3---|

[ Tab from: http://www.guitartabs.cc/tabs/w/weezer/suzanne_tab_ver_3.html ]
Solo
|----------------------------------------------------------------------|
|----------------------------------------------------------------------|
|-5-3-5-3-1-3-3h5/8--6-5-6---12-10-12-10-10h12p10h12p10--8-8-10-8-5-5--|
|----------------------------------------------------------------------|
|----------------------------------------------------------------------|
|----------------------------------------------------------------------|

|----------------------------------------------------------15----15-11-15---|
|----/16-16161616161616-16-14-13-13-14-13-11-11-11--11-11-----11----------9-|
|-8-------------------------------------------------------------------------|
|---------------------------------------------------------------------------|
|---------------------------------------------------------------------------|
|---------------------------------------------------------------------------|

|-15----15-11-15-16---------------------------------------------------------|
|----11---------------------------------------------------------------------|
|---------------------------------------------------------------------------|
|---------------------------------------------------------------------------|
|---------------------------------------------------------------------------|
|---------------------------------------------------------------------------|

 (back to Figure I [1 more time])


 (end)                        YEA!
|---------------------------------4-|
|---------------------------------4-|
|-------------6-6-6-6-6-6---------5-|
|-6-6-6-6-6-6-6-6-6-6-6-6-6-------6-|(let ring)
|-6-6-6-6-6-6-4-4-4-4-4-4-6-------6-|
|-4-4-4-4-4-4-4-4-4-4-4-4-4-------4-|


Lyrics:

   Suzanne, you're all that I wanted of a girl
   You're all that I need in the world
   I'm your child, make me blush, drive me wild      }chorus
   Suzanne  OOOooooOooooo you're all that I wanted

   When I met you I was all alone
   Cold and hungry cryin' on the phone
   You baked be brownies and said "Don't you cry"
   You gave me the coat off your back

   [chorus]

   Even Izzy, Slash, and Axl Rose
   When I call you put 'em all on hold
   You said I'll kneel at you (?) do anything
   And all I can do is say that

   I haven't much I can give you in return
   Only my heart and I promise not to turn
   I sing to you, everyday and every night
   Suzanne, I'm your man

            -solo-

   Suzanne, you're all that I wanted of a girl, OH YEA!
   You're all that I need in the world
   I'm your child, make me blush, drive me wild
   Suzanne, OOOooooOooooo you're all that I wanted
   Of a girl...YEA!
Comments