Weezer - Surf Wax America Chords & Tabs

 

Surf Wax America Chords & Tabs

Weezer Chords & Tabs

Version: 2 Type: Tab 0 ratings
1 star 2 stars 3 stars 4 stars 5 stars
comments

Surf Wax America Tab

here is my full version of this song, the intro that 6stRinGchicK (sorry if i
got your name wrong) is mainly right but i played it along with the song
and i thought that tuning the guitar down half a step sounds more accurate
- i know itís a pain in the arse but it makes the intro a hell of alot easier to
play. you could just play it in normal tuning but it sounds really dodgy if
you play it along with the cd. i'm not saying this version is right or
anything, i know it's not but it's a way of playing it, it's not complicated
and has all the bits in the right order etc. there are two guitars but i've
arranged it for one. ok enough babbling and on with the song!

Intro

eb------------------------------
Bb---3-------1-------------0----
Gb-----0-------0-------------0--     
Db-4-----0-2-----------0--------      
Ab---------------3-2s3----------      
Eb-----------------------3------

the intro is played six times alltogether, during the first two it is the only
thing being played and then the drums and bass come in.

the next bit i will call part one.

eb---------------------------------
Bb---2-2---------------------------
gb---2-2---5-5---------------------
Db---2-2---5-5---5-5-5-5-----------
Ab---0-0---3-3---5-5-5-5-----------
Eb---0-0---0-0---3-3-3-3-----------

play this four times

chorus   ("you take your car to work")
[ Tab from: http://www.guitartabs.cc/tabs/w/weezer/surf_wax_america_tab_ver_2.html ]
eb---------------------------------
Bb---------------------------------
Gb----5-5-5-5----------------------
Db----5-5-5-5---5-5-5-5------------
Ab----3-3-3-3---5-5-5-5------------
Eb--------------3-3-3-3------------

play this four times aswell

now play the intro through twice

part one X4

chorus x4
after the last chorus play this little solo through twice

eb----------------------------------
Bb----------------------------------
Gb----------------------------------
Db----------------------------------
Ab---7---9-10-5-3-2---7---9-10-5----
Eb----------------------------------

then part one x8

      *this next bit is the really slow bit with
       just the bass and a quiet little drum beat
       so just put the kettle on and wait for the 
       chorus*

come in with the chorus at "you take your car to work" play it through
four times and then play the little solo twice

last bit!! -  right after "LETS GO!" play this little bit four times BUT on
the last time end where iíve put a star.
                                
                              
eb-----------------------------------------------
Bb-----------------------------------------------
Gb----5-5-5-5-5--4------------------4------------
Db----5-5-5-5-5--4-----5-5-5-5-5----4------------
Ab----3-3-3-3-3--2-----5-5-5-5-5----2------------
Eb---------------------3-3-3-3-3-----------------
                       *        

well there it is, i think it's good enough to play along with the cd with,
with a band is another matter!! feel free to e-mail me
(hol_jenko@hotmail.com) with any comments/suggestions but please
don't be too mean it is my first tab! 
Comments