Weezer - Say It Aint So Chords & Tabs

 

Say It Aint So Chords & Tabs

Weezer Chords & Tabs

Version: 5 Type: Bass Tab 0 ratings
1 star 2 stars 3 stars 4 stars 5 stars
comments

Say It Aint So Bass Tab

um, this is not the corect tabs, but it sounds really good, and is pretty close anyway...hope yu enjoy
just a note, tune every string down a half step

Main Riff
Gb--------------------------|
Db--------4-4-6-------------|
Ab-4-(4)--------7-------2---|
Eb------4---------0-0-4-----|

Chorus
Gb--------------------------|
Db--------------------------|
Ab-4-4----------------------|
Eb-----4-4/15\5-5-0-0-0-0---|

Bridge
Gb---------------------------|
Db---------------------------|
Ab---------------------------|
Eb-7-7-7-6-6-7-6-0-0-0-3-3---|
[ Tab from: http://www.guitartabs.cc/tabs/w/weezer/say_it_aint_so_btab_ver_5.html ]
Guitar Solo
Gb---------------|
Db---------------|
Ab-4-4-----------|
Eb-----4-5-5-0---|

Final Chorus
Gb------------------------------|
Db------------------------------|
Ab-4-4-4-4----------------------|
Eb---------4-4-4-4-5-5-5-5-0~---|


theres all the riffs, heres the order

main riff    x 10 (dont play last 4 notes 7th time)
chorus       x 4
main riff    x 6  (dont play last 4 notes 2nd time)
chorus       x 4
bridge       x 4
guitar solo  x 4
chorus       x 3
final chorus x 1

~ = let it ring
/ = slide up
\ = slide down


great song, and these tabs should sound great

:-P What the Great Mizuti be? The Great Mizuti be...Great! Is Simple! :-P
I BE THE GREAT MIZUTI!
Comments