Weezer - Say It Aint So Chords & Tabs

 

Say It Aint So Chords & Tabs

Weezer Chords & Tabs

Version: 3 Type: Bass Tab 0 ratings
1 star 2 stars 3 stars 4 stars 5 stars
comments

Say It Aint So Bass Tab

Tune bass down half a step and rock out to this easy song

Verse
Eb-----------------------------------
Ab--------4-5-6----------------------
Db----4-------------------2----------
Gb------4-------5-0-0-2h4------------


Chorus 
Gb --------------------------------
Db --------------------------------
Ab --4--4--------0--0--------------
Eb --------4--4--------0--0--0--0--
[ Tab from: http://www.guitartabs.cc/tabs/w/weezer/say_it_aint_so_btab_ver_3.html ]
The..."dear daddy, I write to..."part
Gb ---------------------------------------
Db --------------------------------------- X2
Ab --2--2--2--1--1--1---------------------
Eb --------------------0--0--0--3--3--3---

Then play this once and the other riff once
Gb ------------------------------------
Db --------------4--2--1--2--2--2--5--5
Ab --2--2--2--1------------------------
Eb ------------------------------------
Comments