Weezer - Say It Aint So Chords & Tabs

 

Say It Aint So Chords & Tabs

Weezer Chords & Tabs

Version: 1 Type: Bass Tab 0 ratings
1 star 2 stars 3 stars 4 stars 5 stars
comments

Say It Aint So Bass Tab

Weezer
Say it aint so

This was originally tabbed by bu295@FreeNet.Carleton.CA 
(Chris Mallalieu).  he got all the notes right, but his tuning was
a little weird, so i fixed it for a half step down, which is
the tuning weezer uses.

VERSE

Gb|--------------------------|
Db|-------4-4-6--------------|
Ab|-4-4--------------------2-|
Eb|-----4-------5-5-0--0-4---|

CHORUS
[ Tab from: http://www.guitartabs.cc/tabs/w/weezer/say_it_aint_so_btab.html ]
Gb|---------------------------------------------|
Db|---------------------------------------------|
Ab|-4-4-------------------2-4-4-----------------| repeat once
Eb|-------4-4---5-5---0-0---------4-4---5-5---0-|

BRIDGE

Gb|----------------------------||------------------------------|
Db|----------------------------||------------------------------|
Ab|-2-2--2---------------------||-2-2--2---9-7-6---------------|
Eb|--------5-5--5-0-0-0-3-3--3-||--------5-------0-0--0-3-3--3-|
                                 ocaisionally play this^^^

LAST CHORUS

Gb|-------------------------------------------|
Db|--------------------7----------------------|
Ab|-4-4------------------7-6-4-4--------------|
Eb|------4-4--5-5--0-0------------4-4--5-5--0-|

Jason Unterreiner (dawgawd@hotmail.com)

Comments