Weezer - Puerta Vallarta Chords & Tabs

 

Puerta Vallarta Chords & Tabs

Weezer Chords & Tabs

Version: 1 Type: Tab 0 ratings
1 star 2 stars 3 stars 4 stars 5 stars
comments

Puerta Vallarta Tab

This is the newest demo by Weezer  "Puerta Vallarta" a very beautiful instrumental

I had to figure it out, I feel it's 90% accurate!! Email me at  Surfwax@optonline.net  with any questions


	Rhythm 1							 	Repeat 4x

--------------0----------------------0-------------------------2---------------------------2------------------------------2------------------|
--------------1----------------------1-------------------------4---------------------------4------------------------------4------------------|
-------------------2-----------------------2---------------------------2-----------------------------2-------------------------------2-------|
-------------------------2------------------------2-----------------------------4----------------------------4--------------------------------|
---0--------------------------------------------------------------------------------------------------------------------------------------------|
-------------------------------------------------------------------------------------------------------------------------------------------------|



	Rhythm 2													Repeat 2x
-------------------------------------------------------------------------------------------------------------------------------------------------------------------------------------------------------------------------------------------------------|
---------------------------------------------------------------------------------------------------0-------0-----------------------------------------------------------------------------------------------------------------------------------------|
----------0-----------------0-----------------0----------------0----------------------0^2----------------------------0---------------------0------------------------0--------------------0------------------------0------------------------0-|
---------------2------------------2------------------------------------2---------------------------------------------------------0---------------------0--------------------------------------------0------------------------0--------------------|
-----3--------------3------------------3---------------3--------------------3-----------------------------------------------------------------------------------------------------------------------------------------------------------------------|
------------------------------------------------------------------------------------------------------------------3-------------------------3----------------------3------------------3------------------------3-----------------------3-----------|




[ Tab from: http://www.guitartabs.cc/tabs/w/weezer/puerta_vallarta_tab.html ]
Rhythm 3						Repeat Rhythm 1 and 2
-------------------------------------------------------------------------------|
-------------------------------------------------------------------------------|
------------2------------------------2---------------------2-----------------|
-------------------1--------------------------1-------------------------------|
-----2-------------------2---------------------------2-----------------------|
-------------------------------------------------------------------------------|




Rhythm 4													repeat
-------------------------------------------------------------------------------------------------------------3-------------------------------------------0--------------------------------------------------------------------|
-------------5-----------------5----------------------------7-------------------7--------------------------------------------0--------------------------------------------1-------------------------------------------------|
-----------------5------------------5------------------------------7------------------7---------------------------------0--------0---------0------------------------0------0---------0------------------------------------|
----------------------5--------------------5-----------------------------7------------------7-----------------------0-----------------0------------------------0-----------------0------------------------------------------|
---3--------------------------------------------------5-------------------------------------------------------------------------------------------------3-----------------------------------------------------------------------|
-------------------------------------------------------------------------------------------------------------3--------------------------------------------------------------------------------------------------------------------|



rhythm 5
-----0------------------------------------------------------------------------------------------------------------------------------------------------|
-----1-----------------0------------------------------------0------------------------------------------0-----1------0-----------------------------|
--------------------------- 2^0--------------0-----------------2---------------0--------------------0--------------------------------------------|
------------------------------------------------2----------------------------------0--------------------0-------------------------------------------|
-----3-----------------------------------------3-----------------------------------------------------------------------------------------------------|
------------------------------------------------------------------------------------3--------3-------------------------------------------------------|
Comments