Weezer - Pinkerton Chords & Tabs

 

Pinkerton Chords & Tabs

Weezer Chords & Tabs

Version: 1 Type: Bass Tab 0 ratings
1 star 2 stars 3 stars 4 stars 5 stars
comments

Pinkerton Bass Tab

   
Pinkerton Album Bass Tab

Tired of Sex

riff 1

Gb |---------------------------|
Db |-------0--0--0-2-0---------|
Ab |-------------------3-2--2--|
Eb |-3--3----------------------|

riff 2 (chorus)

Gb |-----------------------------------|
Db |-----------------0-0-0-0-2-2-2-2---|
Ab |---------3-3-3-3-------------------|
Eb |-3-3-3-3---------------------------|

riff 3:

Gb |----------------------|
Db |----------------------|
Ab |-3--2--0(let ring)----|
Eb |----------------------|

riff 4:

Gb |---------------------------------------------------------|
Db |-3-3-3-3-3-3-3-3-----------------------------------------|
Ab |-----------------3-3-3-3-2-2-2-2-0-0-0-0-0-0-0-0-0-0-0-0-|
Eb |---------------------------------------------------------|

riff 5:

Gb |--------------------------------------------------|
Db |-3--3--3--3---------------------------------------|
Ab |-------------3--2--------0(let ring)--------------|
Eb |-------------------3--0-------------3/10/3-3/10/3-|


song structure:

riff 1 x 10
riff 2 x 3
(silence for 4 beats)
riff 3 x 1
riff 1 x 10
riff 2 x 3
riff 4 x 1
riff 1 x 4
riff 2 x 3
riff 5 x 1
riff 1 x 4

getchoo

Intro
gb---------------------------------|
db---------------------------------|
ab---------------------------------|
eb-5-5-555-5-5-0-0-/1212-121212-12-|

Verse
gb---------------------------------------------------------------------|
db---------------------------------------------------------------------|
ab---------------------------------------------------------------------|
eb-5-5-555-5-5-12-12-121212-12-10-12-5-5-555-5-5-12-12-121212-12-10-12-|

gb--------------------------------------------------------------------------------|
db--------------------------------------------------------------------------------|
ab-------------------------------------------------------12-12-19191919-19-19-19\-|
eb-5-5-5555-5-5-10-10-10101010-10-10-12-12-1212-12-14-15--------------------------|

Pre Verse
gb--------------------------------------------------------|
db--------------------------------------------------------|
ab--------------------------------------------------------|
eb-5-5-555-5-5-0-0-/1212-121212-12-5-5-555-5-5-0-7--5--4--|

Chorus
gb-----------------------------------------------------------|
db-----------------------------------------------------------|
ab---------------------------------------------19-19---------|
eb-0-0-7-8-8-7-0-0-7-8-8-7-0-0-7-8-8-7-0-0-0-0---------------|

Bridge
gb-------------------------------------------------------|
db-------------------------------------------------------|
ab-5-5-5-5-5-5-5-5-5-5-5-5-------------------------------|
eb-------------------------5-5-5-5-5-5-17-17-17-17-17-17-|

gb-------------------------------------------------------------------------|
db-------------------------------------------------------------------------|
ab-17-17-17-17-17-17-17-17-17-17-17-17-------------------19-17-19-14-15-14-|
eb-------------------------------------12-12-12-12-12-12-------------------|


No Other One

E: ----------------------------:-4--4-----------------|
A: ------------------------------------2--4--4--7-\-4-|
D: ---------------------------------------------------|
G: ---------------------------------------------------|

Part #2 of intro

E: --4--4------------------------6--4-|
A: --------2--4--4--7-\-4--4--4-------|
D: -----------------------------------|
G: -----------------------------------|


Verse

E: --4---4---4---6---6---6---4---4---4---------------|
A: --------------------------------------4---4---4---|
D: --------------------------------------------------|
G: --------------------------------------------------|


Part #2 of verse (She's all I got...)

E: 4---4---4---6---6---6---8---8---8---6---4---4---4-|
A: --------------------------------------------------|
D: --------------------------------------------------|
G: --------------------------------------------------|


Part #3 of verse (She's all I got...)

E: 4---4---4---6---6---6---8---8---8--------------|
A: ------------------------------------6---8---10-|
D: -----------------------------------------------|
G: -----------------------------------------------|


Chorus

E: 4---4---4---6---6---6---0---0---0---4---4---------|
A: --------------------------------------------7-\-4-|
D: --------------------------------------------------|
G: --------------------------------------------------|

Why Bother

VERSE:
Gb|-------------------------------------------------------------------------|
Db|o------------------------------------------------------------------------|
Ab|o------------------------------------------7-7-7-7-----------------------|
Eb|---0-0-0-0---4-4-4-4---5-5-5-5---7-7-7-7-------------4-4-4-4---5-5-5-5---|

Gb|-------------|
Db|------------o| x2
Ab|------------o|
Eb|---7-7-7-7---|

CHORUS:
Gb|---------------------------|
Db|o-------------------------o| x2
Ab|o--7-7---4-4--------------o|
Eb|---------------5-5---7-7---|

Gb|----------------------------------------------------|
Db|---------------------------------------7--6--4------|
Ab|---------6--------4--7--4-----6--9--6-----------7---|
Eb|---4--7-----7--5-----------7------------------------|

SOLO:
Gb|-------------------------------------------------------------------------|
Db|-------------------------------------------------------------------------|
Ab|-------------------------------------------7-7-7-7-----------------------|
Eb|---0-0-0-0---4-4-4-4---5-5-5-5---7-7-7-7-------------4-4-4-4---5-5-5-5---|

Gb|-----------------------------------------------------|
Db|-----------------------------------------------------|
Ab|-----------------------------------------------------|
Eb|---7-7-7-7---0-0-0-0---4-4-4-4---5-5-5-5---7-7-7-7---|

Gb|-------------------------------------------6-6-6-6---8-8-8-8---9-9-9-9---|
Db|-------------6-6-6-6---7-7-7-7---9-9-9-9---------------------------------|
Ab|---7-7-7-7---------------------------------------------------------------|
Eb|-------------------------------------------------------------------------|

Gb|---------------------|
Db|---------------------|
Ab|---------------------|
Eb|---11-11-11-11---9---| <-- Let ring
	Rest, then play Verse and Chorus.

Across The Sea


Gb:----------------------------------|
Db:----------------------------------|
Ab:-----2-2-/7-7-5-5-----2-2-3-3-5-5-|
Eb:--3-3--------------3-3------------|

Chorus
Gb:--------------------------------------------------------------------|
Db:--------------------------------------------------------------------|
Ab:---------2-2-2-2-/7-7-7-7-5-5-5-5---------2-2-2-2-/7-7-7-7-7-10-9-7-|
Eb:-3-3-3-3--------------------------3-3-3-3---------------------------|

Gb:-----------------------------------------------------------------|
Db:-----------------------------------------------------------------|
Ab:---7-5-----5-3-2---2-3-5-----4---------------------------5-5-5-5-|
Eb:-7-----7-5-------3-------5-7---7-3-3-3-3-2-2-2-2-0-0-0-0---------|

Gb:-----------------------------------------|
Db:-----------------------------------------|
Ab:-3-3-3-3-5-5-5-5/10-10-10-10-10-10-10-10-|
Eb:-----------------------------------------|

After 1st Chorus
Gb:-----------------------------------------------------------------|
Db:-----------------------------------------------------------------|
Ab:-7-7-7-7-5-5-5-5-3-3-3-3-2-2-2-2-----------------5-5-5-5-5-5-5-5-|
Eb:---------------------------------5-5-5-5-5-5-5-5-----------------|

Solo
Gb:----------------------------------------------------------------------------------|
Db:----------------------------------------------------------------------------------|
Ab:---------------------------------4-4-4-4-6-6-6-6--------5-5-5-/10-10-10-----------|
Eb:-6-6-6-6-5-5-5-5-3-3-3-3-3-3-3-3-----------------3-3-3-------------------10-10-10-|

Gb:----------------------------------------------------------------------------------|
Db:----------------------------------------------------------------------------------|
Ab:-----8h10---8-10---10-8-8------------------5-5-5--/10-10-10-------------------7---|
Eb:-10-----------------------10-10-8-8-3-3-3--------------------10-10-10--7-9-10---7-|

Gb:------------------------------------------------------------|
Db:------------------------------------------------------------|
Ab:---------------------7-7-7----------------------------------|
Eb:-5-4-2-5-5-5--7-7-7---------7-7-7-3-3-3-3-3-3-3-3-7---------|

Bridge
Gb:------------------------------|---------------------------|
Db:.----------------------------.|.--------------------------|
Ab:.-/7---6---4-----------------.|.-/7-7-7-7-6-6-6-6-4-4-4-4-|
Eb:--------------7---5---3---/7--|---------------------------|

Gb:-------------------------------------------|
Db:------------------------------------------.|
Ab:------------------------------------------.|
Eb:-7-7-7-7-5-5-5-5-3-3-3-3-/7-7-7-7-7-7-7-7--|

Last Verse
Gb:------------------------------------|-----------------/9-9-----------------|
Db:.----------------------------------.|----------------------9-9-10-10-12-12-|
Ab:.-----2-2-/7-7-5-5-----2-2-3-3-5-5-.|-----2-2-3-3-5-5----------------------|
Eb:--3-3--------------3-3--------------|-3-3----------------------------------|

Last Chorus
Gb:-------------------------------------------------------------------|
Db:.-----------------------------------------------------------------.|
Ab:.-----------------2-2-2-2-2-2-2-2---------------------------------.|
Eb:--3-3-3-3-3-3-3-3-----------------5-5-5-5-5-5-5-5-0-0-0-0-0-0-0-0--|

Gb:----------------------------------|---------------------------------|
Db:.--------------------------------.|---------------------------------|
Ab:.-3-3-3-3------------------------.|-------------------------5-5-5-5-|
Eb:---------5-5-5-5-3-3-3-3-3-3-3-3--|-3-3-3-3-2-2-2-2-0-0-0-0---------|

Gb:---------------------------------|
Db:---------------------------------|
Ab:-3-3-3-3-5-5-5-5-----------------|
Eb:-----------------3-3-3-3-3-3-3-3-|

The Good Life
[ Tab from: http://www.guitartabs.cc/tabs/w/weezer/pinkerton_btab.html ]
INTRO:
Gb|----------------|
Db|o--------------o|
Ab|o--------------o|
Eb|---3--3-3---0---|

VERSE PART A:
Gb|---------------------------------------------------------|
Db|o-------------------------------------------------------o|
Ab|o-----------------5--5-5-5-5----------------------------o|
Eb|---3--3-3-3---0----------------5--5-5-5-5---0--0-0-0-0---|

VERSE PART B:			   VERSE PART C:
Gb|-------------------------------|-----------------------------------------|
Db|o-----------------------------o|-----------------------------------------|
Ab|o---------5--5----------2--2--o|----------5--5---------/14-14-14-14-14---|
Eb|---3--3----------5--5----------|---3--3----------5--5--------------------|
				Then..

CHORUS:
Gb|------------------------------------------------------------------------|
Db|o----------------------------------------------------------------------o|
Ab|o--3-3-3-3-3-3-3-3--5-5-5-5-5-5-5-5------------------------------------o|
Eb|-------------------------------------5-5-5-5-5-5-5-5--0-0-0-0-0-0-0-0---|

Gb|-------------------------------------------------------------------------|
Db|o-----------------------------------------------------------------------o|
Ab|o----------------------5-5-5-5-5-5-5-5----------------------------------o|
Eb|---5-5-5-5-5-5-5-5--7-------------------3-3-3-3-3-3-3-3--0-0-0-0-0-0-0-0-|

Gb|-----------------------------|
Db|-----------------------------|
Ab|---14-14-14-14-14-14-14-14---|
Eb|-----------------------------|


Pink Triangle

VERSE:
Gb|-------------------------------------------------------|
Db|o-------------------------------4--7--4---------------o|
Ab|o--------2---------4--7--4---5---------------2--5--2--o|
Eb|---0--4-----4---5-------------------------3------------|

CHORUS:
Gb|-----------------------------------------------------------|
Db|o---------------------------------------------------------o|
Ab|o----------2-2-2---3-3-3-----------3-3-3-----------5-5-5--o|
Eb|---3-3-3-------------------3-3-3-----------3-3-3-----------|

Gb|-------------------------------------|
Db|---------------------------------5---|
Ab|------0--2--3--2--0------------------|
Eb|---3-----------------3---3-3-3-------|

Falling For You

Gb :------------------------|------------------------|
Db :------------------------|------------------------|
Ab :------------------------|------------------------|
Eb :------------------------|------------------------|

Gb :------------------------|------------------------|
Db :------------------------|------------------------|
Ab :-------------7----------|-6-----------4----------|
Eb :------------------------|------------------------|

Gb :------------------------|---------------------------|
Db :------------------------|---------------------------|
Ab :-2-----------0----------|-2-------------------------|
Eb :------------------------|-------------4-------------|

Gb :-----------------|----------------|----------------|----------------|
Db :-----------------|----------------|----------------|----------------|
Ab :-----------------|4-4-4-4-4-4-4-4-|----------------|2-2-2-2-2-2-2-2-|
Eb :-----------4-4-4-|----------------|2-2-2-2-2-2-2-2-|----------------|

Gb :----------------|------------------|------------------|
Db :----------------|------------------|------------------|
Ab :*---------------|-4-4-4-4-4-4--4-4-|-0-0-0-0-0-0--0-0-|
Eb :4-4-4-4--*0-0-0-|------------------|------------------|

Gb :------------------|----------------|------------------|
Db :------------------|----------------|------------------|
Ab :-2-2-2-2-2-2--2-2-|----------------|-4-4-4-4-4-4--4-4-|
Eb :------------------|0-0-0-0-0-0-0-0-|------------------|

Gb :------------------|------------------|-----------------|
Db :------------------|------------------|-----------------|
Ab :------------------|-2-2-2-2-2-2--2-2-|-*---------------|
Eb :-2-2-2-2-2-2--2-2-|------------------|-4-4-4-4-4*0-0-0-|

Gb :----------------|----------------|------------------------|--------|
Db :----------------|----------------|------------------------|--------|
Ab :4-4-4-4-4-4-4-4-|9-9-9-9-9-9-9-9-|11--*-------------------|--------|
Eb :----------------|----------------|------------------------|--4-4-4-|

Gb :----------------|----------------|----------------|----------------|
Db :----------------|----------------|----------------|----------------|
Ab :----------2-2-2-|----------------|2-2-2-2-5-------|3-3-3-3-*-------|
Eb :5---5-5-*-------|0---0-0-*-0-0-0-|------------3---|----------4-4-4-|

Gb :----------------|----------------|----------------|----------------|
Db :----------------|----------------|----------------|----------------|
Ab :----------2-2-2-|----------------|2-2-2-2-*-2-2-2-|--------5-5-5-5-|
Eb :5---5-5---------|0---0-0-*-0-0-0-|----------------|0---0-0---------|

Gb :----------------|----------------|----------------|----------------|
Db :----------------|----------------|----------------|----------------|
Ab :----------------|5---5-5-4---4-4-|2---2-2-0---0-0-|----------------|
Eb :3-3-3-3-5-5-5-5-|----------------|----------------|4---4-4-5---5-5-|

Gb :------------------|----------------|----------------|
Db :------------------|----------------|----------------|
Ab :------------------|4-4-4-4-4-4-4-4-|----------------|
Eb :2---2-2-4---4---4-|----------------|2-2-2-2-2-2-2-2-|

Gb :------------------|------------------|----------------|
Db :------------------|------------------|----------------|
Ab :-0-0-0-0-0-0--0-0-|-2-2-2-2-2-2--2-2-|----------------|
Eb :------------------|------------------|0-0-0-0-0-0-0-0-|

Gb :------------------|------------------|-----------------|
Db :------------------|------------------|-----------------|
Ab :-4-4-4-4-4-4--4-4-|------------------|-2-2-2-2-2-2-2-2-|
Eb :------------------|-2-2-2-2--2-2-2-2-|-----------------|

Gb :----------------|----------------|----------------|
Db :----------------|----------------|----------------|
Ab :*---------------|4-4-4-4-4-4-4-4-|9-9-9-9-9-9-9-9-|
Eb :4-4-4-4-4*0-0-0-|----------------|----------------|

Gb :------------------------|--------|----------------|----------------|
Db :------------------------|--------|----------------|----------------|
Ab :11*---------------------|--------|----------2-2-2-|----------------|
Eb :------------------------|--4-4-4-|5---5-5-*-------|0---0-0-*-0-0-0-|

Gb :----------------|----------------|----------------|----------------|
Db :----------------|----------------|----------------|----------------|
Ab :2-2-2-2-5-------|3-3-3-3-*-------|----------2-2-2-|----------------|
Eb :------------3---|----------4-4-4-|5---5-5---------|0---0-0-*-0-0-0-|

Gb :----------------|----------------|----------------|----------------|
Db :----------------|----------------|----------------|----------------|
Ab :2-2-2-2-*-2-2-2-|--------5-5-5-5-|----------------|5---5-5-4---4-4-|
Eb :----------------|0---0-0---------|3-3-3-3-5-5-5-5-|----------------|

Gb :----------------|----------------|-------------------|
Db :----------------|----------------|-------------------|
Ab :2---2-2-0---0-0-|----------------|--------2---2---2--|
Eb :----------------|4---4-4-5---5-5-|2---2-2------------|

Gb :-------------------|------------------|----------------------|
Db :-------------------|------------------|----------------------|
Ab :-----------0---0-0-|------------------|----------------------|
Eb :-0----0--0---------|-3---3-3--2---2-2-|-0---0--0--0--0--0--0-|

Gb :---------------------|----------------------|---------------------|
Db :---------------------|----------------------|---------------------|
Ab :-3---3--3--5----5--5-|----------------------|---------------------|
Eb :---------------------|3---3-3--3--3--3--3---|-3---3-3--2-----2--2-|

Gb :---------------------|----------------------|-----------------|
Db :---------------------|----------------------|-----------------|
Ab :---------------------|-2---2--2--5--5--5--5-|-----------------|
Eb :-0---0-0--0--0--0--0-|----------------------|-0---0-0-0-0-0-0-|

Gb :-----------------|----------------|-----------------|
Db :-----------------|----------------|-----------------|
Ab :-0---0-0-0-0-0-0-|5---5-5-5-5-5-5-|-2---2-2-*-------|
Eb :-----------------|----------------|-----------3-3-3-|

Gb :-----------------|-----------------|----------------|
Db :-----------------|-----------------|----------------|
Ab :-----------------|-0---0-0-0-0-0-0-|5---5-5-5-5-5-5-|
Eb :-0---0-0-0-0-0-0-|-----------------|----------------|

Gb :----------------|----------------|-----------------|
Db :----------------|----------------|-----------------|
Ab :2---2-2-2-2-2-2-|----------------|-0---0-0-0-0-0-0-|
Eb :----------------|0---0-0-0-0-0-0-|-----------------|

Gb :-----------------|----------------|----------------|----------------|
Db :-----------------|----------------|----------------|----------------|
Ab :-5---5-5-5-5-3-3-|2---2-2-*-------|----------------|0-0-0-0-0-0-0-0-|
Eb :-----------------|----------3-3-3-|0---0-0-0-0-0-0-|----------------|

Gb :----------------|--------|----------------|----------------|
Db :----------------|--------|----------------|----------------|
Ab :2-*-------------|--2-2-2-|3---3-3-*-5-5-5-|----------------|
Eb :----------------|--------|----------------|3---3-3-*-3-3-3-|

Gb :-----------------|----------------|----------------|----------------|
Db :---------3-------|----------------|----------------|----------------|
Ab :5-5-5-5----------|6-6-6-6-*-2-2-2-|3---3-3-*-5-5-5-|----------------|
Eb :-------------6---|----------------|----------------|3---3-3-*-3-3-3-|

Gb :----------------|----------------|----------------|----------------|
Db :----------------|----------------|----------------|----------------|
Ab :5-5-5-5-*-5-5-5-|--------3---3-3-|--------6---6-6-|--------3---3-3-|
Eb :----------------|3---3-3---------|6---6-6---------|3---3-3---------|

Gb :----------------|----------------|
Db :----------------|----------------|
Ab :--------6---6-6-|----------------|
Eb :6---6-6---------|3---------------|

Butterfly

G:------------------------------|
D:------------------------------|
A:---------3--5-----------------|
E:---3--0-----------------------|
Comments