Weezer - Pink Triangle Chords & Tabs

 

Pink Triangle Chords & Tabs

Weezer Chords & Tabs

Version: 2 Type: Tab 0 ratings
1 star 2 stars 3 stars 4 stars 5 stars
comments

Pink Triangle Tab

Hey Everyone!!!!
This is Pink Triangle by Weezer off their Pinkerton Album!!
and if you have any questions or comments 
E-mail me @   flank82@msn.com!!!!!
ok here goes this song is 100% correct!!!
PLEASE RATE THIS TAB!!!!!!
             

              **THIS SONG IS PLAYED 1/2 A STEP TUNED DOWN**
                  
                     (Intro)
e----------10----12-----7---8---3--2--3---
b-----------------------------------------
G-----------------------------------------
D-----------------------------------------
A-----------------------------------------
E-----------------------------------------


(okay now this is the verses!!)(Strumming is not defined!!)

e---0---------0-----------2-----------3------------
b---0---------1-----------3-----------0------------
G---0---------2-----------2-----------0------------
D---2---------2-----------0-----------0------------
A---2---------0-----------X-----------2------------
E---0---------X-----------X-----------3------------

Lyrics:  When I'm stable long enough..............


(this is the little guitar part you hear during this verse(s)!)

(e---3--3---2---3----5-----7---7---7--8--5--3--5--2--3--5---7--

^continued- e---10--10--10---12--7--(pause)--8--7--5--3--2--3--2--))



(Chorus!!! Best Part!!!)STRUMMING NOT DEFINED!!!!
(POWER CHORDS!)

e-----------------------------------------------------------------
b-----------------------------------------------------------------
G--------4----5---------5----------7-----9----4----5---------5----
D---5----4----5----5----5----5-----7-----9----4----5----5----5----
A---5----2----3----5----3----5-----5-----7----2----3----5----3----
E---3--------------3---------3--------------------------3---------

(continued)-chorus
e------------------------------------------------------------------
b------------------------------------------------------------------
G------------7------5-----4----2----7----9---5--------5-----7------
D------5-----7------5-----4----2----7----9---5----5---5-----7-----5   
A------5-----5------3-----2----0----5----7---3----5---3-----5-----5
E------3------------------------------------------3---------------3

start the top of this chorus when you hear:
********* I'm Dumb She's A Lesbian, I though I had found the one!!!



**Then play this between break after chorus.....

e-----3----5----7-----5----3-----2-----3------------------------
b---------------------------------------------------------------
G---------------------------------------------------------------
D---------------------------------------------------------------
A---------------------------------------------------------------
E---------------------------------------------------------------

REPEAT "TWICE"

****Then play verse***

e---0---------0-----------2-----------3------------
b---0---------1-----------3-----------0------------
G---0---------2-----------2-----------0------------
D---2---------2-----------0-----------0------------
A---2---------0-----------X-----------2------------
E---0---------X-----------X-----------3------------

Lyrics: Might of smoked a few in my time, but never thought........


And you may also play the second guitar part:

(e---3--3---2---3----5-----7---7---7--8--5--3--5--2--3--5---7--

^continued- e---10--10--10---12--7--(pause)--8--7--5--3--2--3--2--))

[ Tab from: http://www.guitartabs.cc/tabs/w/weezer/pink_triangle_tab_ver_2.html ]
Then after you have played the verse go back to the Chorus!!!!
(ONCE AGAIN STRUMMING ISNT DEFINED!!!)

e-----------------------------------------------------------------
b-----------------------------------------------------------------
G--------4----5---------5----------7-----9----4----5---------5----
D---5----4----5----5----5----5-----7-----9----4----5----5----5----
A---5----2----3----5----3----5-----5-----7----2----3----5----3----
E---3--------------3---------3--------------------------3---------

(continued)-chorus
e------------------------------------------------------------------
b------------------------------------------------------------------
G------------7------5-----4----2----7----9---5--------5-----7------
D------5-----7------5-----4----2----7----9---5----5---5-----7-----5   
A------5-----5------3-----2----0----5----7---3----5---3-----5-----5
E------3------------------------------------------3---------------3


Now here's the solo!!!!

e------------------------------------------------------------------
b------------------------------------------------------------------
G------------------------------------------------------------------
D---5--7--9--9--10----4--5---7--7---9----5----7---9---9--10--------
A------------------------------------------------------------------
E------------------------------------------------------------------

continued solo from above^^^^

e-----------------------------------------------------------------
b-----------------------------------------------------------------
G-----------------------------------------------------------------
D---12----9--9--9--9--9--9--9--9---7--5-----7--9--9--10-----------
A-----------------------------------------------------------------
E-----------------------------------------------------------------

continued^^^^

e------------------------------------------------------------------
b------------------------------------------------------------------
g------------------------------------------------------------------
D--7--9--10---10---12---(pause)-12-12--10--10-9-9-7--7--5--5--4----
A------------------------------------------------------------------
E------------------------------------------------------------------
end of solo

Now play the chorus except you're going to palm mute twice before 
opening!!!!! and then open during the middle!!!! Then you will play
it I think it's twice after that and then you are finished with the song!!!

e-----------------------------------------------------------------
b-----------------------------------------------------------------
G--------4----5---------5----------7-----9----4----5---------5----
D---5----4----5----5----5----5-----7-----9----4----5----5----5----
A---5----2----3----5----3----5-----5-----7----2----3----5----3----
E---3--------------3---------3--------------------------3---------

(continued)-chorus
e------------------------------------------------------------------
b------------------------------------------------------------------
G------------7------5-----4----2----7----9---5--------5-----7------
D------5-----7------5-----4----2----7----9---5----5---5-----7-----5   
A------5-----5------3-----2----0----5----7---3----5---3-----5-----5
E------3------------------------------------------3---------------3



WEEZER - PINK TRIANGLE -PINKERTON
Comments