Weezer - Photograph Chords & Tabs

 

Photograph Chords & Tabs

Weezer Chords & Tabs

Version: 5 Type: Tab 0 ratings
1 star 2 stars 3 stars 4 stars 5 stars
comments

Photograph Tab

   
Artist: Weezer
Title: Photograph
Props Go To: John Ellis

Tuning:Standard (eBGDAE)

Intro/Verse

e|-----------------------------------------------------------------|
B|-----------------------------------------------------------------|
G|---------------------------------7-7-7-7-9-9-9-9-----------------|
D|-7-7-7-7-7-7-7-7-4-4-4-4-4-4-4-4-7-7-7-7-9-9-9-9-4-4-4-4-4-4-4-4-|
A|-7-7-7-7-7-7-7-7-4-4-4-4-4-4-4-4-5-5-5-5-7-7-7-7-4-4-4-4-4-4-4-4-|
E|-5-5-5-5-5-5-5-5-2-2-2-2-2-2-2-2-5-5-5-5-7-7-7-7-2-2-2-2-2-2-2-2-|

Verse 2

e|-----------------------------------------------------------------|
B|-----------------------------------------------------------------|
G|-7-7-7-7-9-9-9-9-----------------7-7-7-7-9-9-9-9-----------------|
D|-7-7-7-7-9-9-9-9-7-7-7-7-7-7-7-7-7-7-7-7-9-9-9-9-7-7-7-7-7-7-7-7-|
A|-5-5-5-5-7-7-7-7-7-7-7-7-7-7-7-7-5-5-5-5-7-7-7-7-7-7-7-7-7-7-7-7-|
E|-5-5-5-5-7-7-7-7-5-5-5-5-5-5-5-5-5-5-5-5-7-7-7-7-5-5-5-5-5-5-5-5-|

e|-----------------------------------------------------------------|
B|-----------------------------------------------------------------|
G|-7-7-7-7-9-9-9-9-5-5-5-5---------7-7-7-7-7-7-7-7-----------------|
D|-7-7-7-7-9-9-9-9-5-5-5-5-4-4-4-4-7-7-7-7-7-7-7-7-2-2-2-2-2-2-2-2-|
A|-5-5-5-5-7-7-7-7-3-3-3-3-4-4-4-4-5-5-5-5-5-5-5-5-2-2-2-2-2-2-2-2-|
E|-5-5-5-5-7-7-7-7-3-3-3-3-2-2-2-2-5-5-5-5-5-5-5-5-0-0-0-0-0-0-0-0-|

Chorus
[ Tab from: http://www.guitartabs.cc/tabs/w/weezer/photograph_tab_ver_5.html ]
e|-------------------------------------------------------------------|
B|-------------------------------------------------------------------|
G|-6-6-6-6-6-6-6-6-------------------6-6-6-6-6-6-6-6-----------------|
D|-6-6-6-6-6-6-6-6-4-4-4-4-4-4-7-7-7-6-6-6-6-6-6-6-6-4-4-4-4-4-7-7-7-|
A|-4-4-4-4-4-4-4-4-4-4-4-4-4-4-7-7-7-4-4-4-4-4-4-4-4-4-4-4-4-4-7-7-7-|
E|-4-4-4-4-4-4-4-4-2-2-2-2-2-2-5-5-5-4-4-4-4-4-4-4-4-2-2-2-2-2-5-5-5-|

e|-------------------------------------------------------------------|
B|-------------------------------------------------------------------|
G|-7-7-7-7-7-7-7-7-4-4-4-4-4-4-4-4-4---------------------------------|
D|-7-7-7-7-7-7-7-7-4-4-4-4-4-4-4-4-4-5-5-5-5-5-5-5-5-2-2-2-2-2-2-2-2-|
A|-5-5-5-5-5-5-5-5-2-2-2-2-2-2-2-2-2-5-5-5-5-5-5-5-5-2-2-2-2-2-2-2-2-|
E|-5-5-5-5-5-5-5-5-2-2-2-2-2-2-2-2-2-3-3-3-3-3-3-3-3-0-0-0-0-0-0-0-0-|

Solo

e|-----------------------------------------------------------|
B|-----------------------------------------------------------|
G|-6-------------6-------------------------------------------|
D|-----7-7-7-7-7-----7-7-7-7--7---7-7-9-11-11-9-9-9-9-7-7-7b-|
A|---7-------------7------------7----------------------------|
E|-----------------------------------------------------------|

Outro Verse
e|--------------------------------------------------------------------------|
B|--------------------------------------------------------------------------|
G|--------------------------------------7-7-7-7--9-9-9-9--------------------|
D|---7-7-7-7-7-7-7-7---4-4-4-4-4-4-4-4--7-7-7-7--9-9-9-9--------------------|
A|---7-7-7-7-7-7-7-7---4-4-4-4-4-4-4-4--5-5-5-5--7-7-7-7--------------------|
E|---5-5-5-5-5-5-5-5---2-2-2-2-2-2-2-2--5-5-5-5--7-7-7-7--------------------|
   If you blew it donít reject itÖ  

e|--------------------------------------------------------------------------|
B|--------------------------------------------------------------------------|
G|------------------7-7-7-7--9-9-9-9----------------------------------------|
D|-7-7-7-7-7-7-7-7--7-7-7-7--9-9-9-9--7-7-7-7-7-7-7-7-----------------------|
A|-7-7-7-7-7-7-7-7--5-5-5-5--7-7-7-7--7-7-7-7-7-7-7-7-----------------------|
E|-5-5-5-5-5-5-5-5--5-5-5-5--7-7-7-7--5-5-5-5-5-5-5-5-----------------------|
Comments