Weezer - Photograph Chords & Tabs

 

Photograph Chords & Tabs

Weezer Chords & Tabs

Version: 1 Type: Bass Tab 1 rating
1 star 2 stars 3 stars 4 stars 5 stars
comments

Photograph Bass Tab

Photograph
By: Weezer
Album: Weezer (Green)

(no bass in the first part)

   (cause everybody body wants some love...)


Gb-----------------------------------
Db-----------------------------------
Ab---5-5-5-5--7-7-7-7--0-0-0-0-------
Eb-----------------------------------


   (and though me heart will break...)

Gb----------------------------------------
Db----------------------------------------
Ab--5-5-5-5--7-7--4-4-4-4--2-2--5-5-5-5--7
Eb----------------------------------------
[ Tab from: http://www.guitartabs.cc/tabs/w/weezer/photograph_btab.html ]
   (it's in the photograph)

Gb---------------------------------
Db---------------------------------
Ab--4-4-4-4-4-4---------0-0--------
Eb---------------2-2---------------

    (it's in the phtograph of love)
Gb-----------------------------------------
Db-----------------------------------------
Ab--5-5-5-5-5-5---2-2-2-2------------------
Eb-------------------------3-3-3-3--0-0-0-0


     That's it.  Just those parts are throughout the whole song.
     It won't be hard to figure out the order
Comments