Weezer - Peace Chords & Tabs

 

Peace Chords & Tabs

Weezer Chords & Tabs

Version: 1 Type: Tab 0 ratings
1 star 2 stars 3 stars 4 stars 5 stars
comments

Peace Tab

Make Believe
Weezer - Peace

riff (chords)


    c#major    Bbminor
e----------------------------------------------------------------------------|
b---6----------2-------------------------------------------------------------|
g---6----------3-------------------------------------------------------------|
d---6----------3-------------------------------------------------------------|
a---4----------1-------------------------------------------------------------|
e----------------------------------------------------------------------------|

oriental riff

e--6---4--------------------------------------------------------------------|
b----6---4-6---4---2/4-2----------------------------------------------------|
g------------6---3----------------------------------------------------------|
d---------------------------------------------------------------------------|
a---------------------------------------------------------------------------|
e---------------------------------------------------------------------------|

'wo-ah'
[ Tab from: http://www.guitartabs.cc/tabs/w/weezer/peace_tab.html ]
e-----------------------------------------------------------------------|
b----------6------------------------------------------------------------|
g---3---5--6--1---------------------------------------------------------|
d---4---6--6--3---------------------------------------------------------|
a---4---6--4--3---------------------------------------------------------|
e---2---4-----1---------------------------------------------------------|

solo

e-------------------------------------------------------------------------|
b----------------6-4------------------------------------------------------|
g---------6-5-3--x-x-6----------------------------------------------------|
d--4-1/3--x-x-x--3-1-x----------------------------------------------------|
a---------4-3-1------4----------------------------------------------------|
e-------------------------------------------------------------------------|

play next part rapidly several times

e--------16--------------------------------------------------------------|
b--13h14-----------------------------------------------------------------|
g------------------------------------------------------------------------|
d------------------------------------------------------------------------|
a------------------------------------------------------------------------|
e------------------------------------------------------------------------|

e-----------------13--------------------------11-11-9-8h9---------------|
b--13--11---[14h16----(play several times)-]----------------------------|
g-----------------------------------------------------------------------|
d-----------------------------------------------------------------------|
a-----------------------------------------------------------------------|
e-----------------------------------------------------------------------|
Comments