Weezer - Only In Dreams Chords & Tabs

 

Only In Dreams Chords & Tabs

Weezer Chords & Tabs

Version: 3 Type: Tab 0 ratings
1 star 2 stars 3 stars 4 stars 5 stars
comments

Only In Dreams Tab

   
Only in Dreams
as performed by Weezer
Words and Music by Rivers Cuomo

4/4 Time
All strings tuned down one half step
(All chords relative to standard tuning)


Intro

Bass plays first four measures

     G/B         Cadd9         Asus4       D7 D6 D7 D6
eb||-------------------------|-------------------------|
Bb||-3--3--3--3--3--3--3--3--|-3--3--3--3--------------|
F#||-0--0--0--0--0--0--0--0--|-2--2--2--2--5--4--5--4\-|
C#||-0--0--0--0--2--2--2--2--|-2--2--2--2--4--4--4--4\-|
Ab||-2--2--2--2--3--3--3--3--|-0--0--0--0--5--5--5--5\-|
Eb||-------------------------|-------------------------|
    (Play this whenever you see this chord pattern)

    G/B         Cadd9         Asus4       D7 D6 D7 D6  
eb|-------------------------|-------------------------|
Bb|-------------------------|-------------------------|
F#|-------------------------|-------------------------|
C#|-------------------------|---------------------12*-|
Ab|-------------------------|------------------12*----|
Eb|-------------------------|----------------12*------|

    G/B      Cadd9            Asus4       D7 D6 D7 D6
eb|:|-------------------------|-------------------------|
Bb|:|-------------------------|----------------0-----0--|
F#|:|-12*------0-----0-----0--|----0-----0--------------|
C#|:|-------0-----------1b----|-------6br---10----10----|
Ab|:|-------------------------|-------------------------|
Eb|:|-------------------------|-------------------------|

    G/B      Cadd9            Asus4       D7 D6 D7 D6
eb|-------------------------|-------------------------|:|
Bb|-------------------------|----------------0-----0--|:|
F#|-0--------0-----0-----0--|----0-----0--------------|:|
C#|-------0-----------1b----|-------6br---8-----8-----|:|
Ab|-------------------------|-------------------------|:|
Eb|-------------------------|-------------------------|:|(Play Two Times)
   (This Pattern repeats throughout most of the song)

Verse

G/B Cadd9       Asus4 D7 D6 D7 D6
You can't resist her,
G/B    Cadd9       Asus4 D7 D6 D7 D6
she's in your bones.
G/B Cadd9      Asus4   D7   D6  D7 D6
She is your marrow and your ride
G/B Cadd9 Asus4 D7 D6 D7 D6
home.

G/B Cadd9      Asus4 D7 D6 D7 D6
You can't avoid her,
G/B   Cadd9     Asus4 D7 D6 D7 D6
she's in the air. (In the air.)
G/B Cadd9    Asus4 D7 D6 D7 D6
In between molecules of 
G/B Cadd9     Asus4  D7 D6 D7 D6
oxygen and carbon dioxide.


Chorus

    B5    A5 G5               C5    B5 A5
eb|-------------------------|-------------------------|
Bb|-------------------------|-------------------------|
F#|-------------------------|-------------------------|
C#|-9--9--7--5--5--5--5--5--|-10-10-9--7--7--7--7--7--|
Ab|-9--9--7--5--5--5--5--5--|-10-10-9--7--7--7--7--7--|
Eb|-7--7--5--3--3--3--3--3--|-8--8--7--5--5--5--5--5--|
                Only in dreams         we see what it means.

B5  A5 G5
       Reach out our hands,
C5  B5 A5
       hold on to hers.

    F5       Bb5              G5       C5
eb|-------------------------|-------------------------|
Bb|-------------------------|-------------------------|
F#|-------------------------|-------------------------|
C#|-3--3--3--8--8--8--8--8--|-5--5--5--10-10-10-10-10-|
Ab|-3--3--3--8--8--8--8--8--|-5--5--5--10-10-10-10-10-|
Eb|-1--1--1--6--6--6--6--6--|-3--3--3--8--8--8--8--8--|
                But when we wake,      it's all been erased.

B5  A5 G5
       And so it seems,

    C5   C#5 D5
eb|-------------------------|
Bb|-------------------------|
F#|-5--5--6--7--------------|
C#|-5--5--6--7--------------|
Ab|-3--3--4--5--------------|
Eb|-------------------------|
             only in dreams.

1 Measure of rest, then


Verse

G/B Cadd9

    Asus4       D7 D6 D7 D6   N.C.
eb|-------------------------|-------------------------|
Bb|-------------------------|-------------------------|
F#|-------------------------|-12*---------------------|
C#|----------------------12*|-------------------------|
Ab|-------------------12*---|-------------------------|
Eb|----------------12*------|-------------------------|
                                  You walk up to her,

ask her to dance.
She says, "Hey baby I just might take the chance."

    G/B         Cadd9         Asus4       D7 D6 D7 D6
eb|-------------------------|----------------10------|
Bb|-------------------------|------------------------|
F#|-------------------------|------------------------|
C#|-------------------------|------------------------|
Ab|-------------------------|------------------------|
Eb|-------------------------|------------------------|
        You say it's a good   thing

    G/B         Cadd9         Asus4       D7 D6 D7 D6
eb|(10)~~~~~~~~~~~~~~~~~~~~~|~~~~~~~~~~~~~10\\\\8\\\\|
Bb|-------------------------|------------------------|
F#|-------------------------|------------------------|
C#|-------------------------|------------------------|
Ab|-------------------------|------------------------|
Eb|-------------------------|------------------------|
   that you float in the air.            (In    the

    G/B         Cadd9         Asus4       D7 D6 D7 D6
eb|\7-----------------------|------------------------|
Bb|-------------------------|------------------------|
F#|-------------------------|------------------------|
C#|-------------------------|------------------------|
Ab|-------------------------|------------------------|
Eb|-------------------------|------------------------|
   air.)  That way ther's no     way     I   will crush

    G/B         Cadd9         Asus4       D7 D6 D7 D6
eb|-------------------------|------------------------|
Bb|-------------------------|------------------------|
F#|-7*----------------------|-12*--------------------|
C#|-------------------------|------------------------|
Ab|-------------------------|------------------------|
Eb|-------------------------|-------------7----------|
          your pretty toenails into a thousand pieces.\


Chorus

B5 A5 G5
        Only in dreams
C5 B5 A5
      we see what it means.
B5 A5 G5
        Reach out our hands,
C5 B5 A5
        hold on to hers.
F5 Bb5
      But when we wake,
G5 C5
   it's all been erased.
B5 A5 G5
        And so it seems,
C5 C#5 D5
         only in dreams.

1 measure of rest then,

    G/B         Cadd9         Asus4       D7 D6 D7 D6
eb|-------------------------|------------------------|
Bb|-------------------------|------------------------|
F#|-------------------------|-------------0--0-------|
C#|-------------------------|-------------------4----|
Ab|-------------------------|------------------------|
Eb|-------------------------|------------------------|
                                          Only in 

    G/B         Cadd9         Asus4       D7 D6 D7 D6
eb|-------------------------|------------------------|
Bb|-------------------------|------------------------|
F#|-0-----------------------|-------------0--0-------|
C#|-------------------------|-------------------4----|
Ab|-------------------------|------------------------|
Eb|-------------------------|------------------------|
/////////////////////////////////////////////////////\
eb|-------------------------|------------------------|
Bb|-------------------------|------------------------|
F#|-------------------------|------------------------|
C#|-------------------------|-4-----------4----------|
Ab|-------------------------|------------------------|
Eb|-------------------------|------------------------|
    dreams,                               only in

    G/B         Cadd9         Asus4       D7 D6 D7 D6
eb|-------------------------|------------------------|
Bb|-------------------------|------------------------|
F#|-0-----------------------|------------------------|
C#|-------------------------|------------------------|
Ab|-------------------------|------------------------|
Eb|-------------------------|------------------------|
/////////////////////////////////////////////////////\
eb|-------------------------|-7*---------------------|
Bb|-------------------------|------------------------|
F#|-------------------------|-------------14---------|
C#|-------------------------|------------------------|
Ab|-------------------------|------------------------|
Eb|-------------------------|------------------------|
    dreams                                only in

    B5       E5               A5          D5    C5
eb|-------------------------|------------------------|
Bb|-------------------------|------------------------|
F#|-4--4--4//9--9--9--9--9\\\\2--2--2--2//7--7--5--5-|
C#|-------------------------|------------------------|
Ab|-2--2--2//7--7--7--7--7\\\\0--0--0--0//5--5--3--3-|
Eb|-------------------------|------------------------|
    dreams,                               only  in

B5     E5 A5 D5   C5
dreams,      only in
B5     E5 A5 D5   C5
dreams,      only in
B5     E5 A5 D5 C5
dreams.


Outro

    B5       E5               A5          D5    C5
eb|-------------------------|------------------------|
Bb|-------------------------|------------------------|
F#|-4--4--4//9--9--12-12-12\\\2--2--2--2//7--7--5--5-|
C#|-------------------------|------------------------|
Ab|-2--2--2//7--7--10-10-10\\\0--0--0--0//5--5--3--3-|
Eb|-------------------------|------------------------|

    B5       E5               A5          D5    C5
eb|-------------------------|------------------------|
Bb|-------------------------|------------------------|
F#|-4--4--4//12-12-12-12-12\\\5--5--5--5//11-11-9--9-|
C#|-------------------------|------------------------|
Ab|-2--2--2//10-10-10-10-10\\\3--3--3--3//9--9--7--7-|
Eb|-------------------------|------------------------|

    B5       E5               A5          D5    C5
eb|-------------------------|------------------------|
Bb|-------------------------|------------------------|
F#|-4--4--4//12-12-12-12-12\\\2--2--2--2//7--7--5--5-|
C#|-------------------------|------------------------|
Ab|-2--2--2//10-10-10-10-10\\\0--0--0--0//5--5--3--3-|
Eb|-------------------------|------------------------|

    B5       E5               A5          D5    C5
eb|-------------------------|------------------------|
Bb|-------------------------|------------------------|
F#|-4--4--4//12-12-12-12-12\\\5--5--5--5//11-11-9--9-|
C#|-------------------------|------------------------|
Ab|-2--2--2//10-10-10-10-10\\\3--3--3--3//9--9--7--7-|
Eb|-------------------------|------------------------|

    N.C.
eb|-------------------------|------------------------|
Bb|-------------------------|------------------------|
F#|-------------------------|------------------------|
C#|-9-----------------------|------------------------|
Ab|-------------------------|------------------------|
Eb|-7-----------------------|------------------------|
/////////////////////////////////////////////////////\
eb|-------------------------|------------------------|
Bb|-------------------------|------------------------|
F#|-7-----------------------|(7)---------------------|
C#|-------------------------|------------------------|
Ab|-5-----------------------|(5)---------------------|
Eb|-------------------------|------------------------|

    N.C.
eb|-------------------------|------------------------|
Bb|-------------------------|------------------------|
F#|-------------------------|----------------------7-|
C#|-------4-----------------|------------------------|
Ab|-------------------------|------------------------|
Eb|-------------------------|------------------------|
/////////////////////////////////////////////////////\
eb|-------------------------|------------------------|
Bb|-------------------------|------------------------|
F#|(7)----------------------|-------------5----------|
C#|-------------------------|------------------------|
Ab|(5)----------------------|------------------------|
Eb|-------------------------|------------------------|

   (G)                                             (C)
eb|-7-----7-------7-------7-------7-|(7)----7-------8-----8-----8----|
Bb|---8-------8-------8-------8-----|---8-------8-----8-----8-----8--|
F#|-----7-------7-------7-------7---|-----7-------7-----9-----9----(0)
C#|---------------------------------|--------------------------------|
Ab|---------------------------------|--------------------------------|
Eb|---------------------------------|--------------------------------|
/////////////////////////////////////////////////////////////////////\
eb|---------------------------------|--------------------------------|
Bb|---------------------------------|--------------------------------|
F#|-5\~\~\~\4~~~~~~~~~~~~~~~~~~~~~~~|-------------5--(5)\\4~~~~~~~~~~|
C#|---------------------------------|--------------------------------|
Ab|---------------------------------|--------------------------------|
Eb|---------------------------------|--------------------------------|

   (G)                                               (C)
eb|-7-----7-------7-------7---------|-7-----7-------x-----8-----8-----|
Bb|---8-------8-------8-----8-------|---8-------8-x-----8---------8---|
F#|-----7-------7-------7-----7-----|-----7-----------9-------9----(0)|
C#|---------------------------------|---------------------------------|
Ab|---------------------------------|---------------------------------|
Eb|---------------------------------|---------------------------------|
//////////////////////////////////////////////////////////////////////\
eb|---------------------------------|---------------------------------|
Bb|---------------------------------|---------------------------------|
F#|~~~~~~~~~~~~~~~~~5\\\4~~~~~~~~~~~|-----------5----(5)\\4~~~~~~~~~~~|
C#|---------------------------------|---------------------------------|
Ab|---------------------------------|---------------------------------|
Eb|---------------------------------|---------------------------------|

   (G)                                                 (C)
eb|-7-----7-------7-------7---------|---7-----7-----------8-----8-----|
Bb|---8-------8-------8-------8-----|-----------8---------------------|
F#|-----7-------7-------7-------7---|-7-----7-----7---8/9-----9---0---|
C#|---------------------------------|---------------------------------|
Ab|---------------------------------|---------------------------------|
Eb|---------------------------------|---------------------------------|
//////////////////////////////////////////////////////////////////////\
eb|---------------------------------|---------------------------------|
Bb|---------------------------------|---------------------------------|
F#|-7------------------------9~~~~~~|~(9)~~~~~--------11~~~~~~~~~~~~~~|
C#|---------------------------------|---------------------------------|
Ab|---------------------------------|---------------------------------|
Eb|---------------------------------|---------------------------------|

   (G)                                               (C)
eb|-7-----7-------7-------7---------|-----7-----7-----8-----8-------8-|
Bb|---8-------8-------8-------8---8-|(8)----8-----8-----8---------8---|
F#|-----7-------7-------7-------7---|---7-----7-----0-----9-----9-----|
C#|---------------------------------|---------------------------------|
Ab|---------------------------------|---------------------------------|
Eb|---------------------------------|---------------------------------|
//////////////////////////////////////////////////////////////////////\
eb|---------------------------------|---------------------------------|
Bb|---------------------------------|---------------------------------|
C#|-12~~~~~~~~~~~~~~~~~~~~~~~-------|---------------------9-----------|
F#|---------------------------------|---------------------------------|
Ab|---------------------------------|---------------------------------|
Eb|---------------------------------|---------------------------------|

    N.C.
eb|-------------------------------------------------|
Bb|-------------------------------------------------|
F#|-11-11-11-11-11-------11-11-11-11-11-11----11-11-|
C#|-------------------------------------------------|
Ab|-9--9--9--9--9--------9--9--9--9--9--9-----9--9--|
Eb|-------------------------------------------------|
////////////////////////////////////////////////////\
eb|-------------------------------------------------|
Bb|-------------------------------------------------|
F#|-11----------------------------------------------|
C#|-------------------------------------------------|
Ab|-9-----------------------------------------------|
Eb|-------------------------------------------------|

    N.C.
eb|-------------------------------------------------|
Bb|-------------------------------------------------|
F#|-12-12-12-12-12----12-12-12-12-12-12-11-11-11-11-|
C#|-------------------------------------------------|
Ab|-10-10-10-10-10----10-10-10-10-10-10-9--9--9--9--|
Eb|-------------------------------------------------|
////////////////////////////////////////////////////\
eb|-------------------------------------------------|
Bb|-------------------------------------------------|
F#|-11----------------------------------11-11-11-11-|
C#|-------------------------------------------------|
Ab|-9-----------------------------------9--9--9--9--|
Eb|-------------------------------------------------|

    N.C.
eb|-------------------------------------------------|
Bb|-------------------------------------------------|
F#|-11-11-11-11-11----11-11-11-11-11-11-11----11-11-|
C#|-------------------------------------------------|
Ab|-9--9--9--9--9-----9--9--9--9--9--9--9-----9--9--|
Eb|-------------------------------------------------|
////////////////////////////////////////////////////\
eb|-------------------------------------------------|
Bb|-------------------------------------------------|
F#|-11-11-11-------------------------------11-11-11-|
C#|-------------------------------------------------|
Ab|-9--9--9--------------------------------9--9--9--|
Eb|-------------------------------------------------|

    N.C.
eb|-------------------------------------------------|
Bb|-------------------------------------------------|
F#|-12-12-12-12-12----12-12-12-12-12-12-12----12-12-|
C#|-------------------------------------------------|
Ab|-10-10-10-10-10----10-10-10-10-10-10-10----10-10-|
Eb|-------------------------------------------------|
////////////////////////////////////////////////////\
eb|-------------------------------------------------|
Bb|-------------------------------------------------|
F#|-11-11-11-------------------------------------12\|
C#|-------------------------------------------------|
Ab|-9--9--9--------------------------------------10\|
Eb|-------------------------------------------------|

    N.C.
eb|-------------------------------------------------|
Bb|-------------------------------------------------|
F#|-11-11-11-11-11----11-11-11-11-11-11-11----11-11-|
C#|-------------------------------------------------|
Ab|-9--9--9--9--9-----9--9--9--9--9--9--9-----9--9--|
Eb|-------------------------------------------------|
////////////////////////////////////////////////////\
eb|-------------------------------------------------|
Bb|-------------------------------------------------|
F#|\11-11-11-11-11-------------------------------11-|
C#|-------------------------------------------------|
Ab|\9--9--9--9--9--------------------------------9--|
Eb|-------------------------------------------------|

    N.C.
eb|-------------------------------------------------|
Bb|-------------------------------------------------|
F#|-11-12-12-12-12----12-12-12-14-14-14-14----14-14-|
C#|-------------------------------------------------|
Ab|-9--10-10-10-10----10-10-10-12-12-12-12----12-12-|
Eb|-------------------------------------------------|
////////////////////////////////////////////////////\
eb|-------------------------------------------------|
Bb|-------------------------------------------------|
F#|-11/12-12-12-12----------12----------12-------12\|
C#|-------------------------------------------------|
Ab|-9//10-10-10-10----------10----------10-------10\|
Eb|-------------------------------------------------|

    N.C.
eb|-------------------------------------------------|
Bb|-------------------------------------------------|
F#|-7--7--7--7--7-----7--7--7//9--9--9--9--9--9--9--|
C#|-------------------------------------------------|
Ab|-5--5--5--5--5-----5--5--5//7--7--7--7--7--7--7--|
Eb|-------------------------------------------------|
////////////////////////////////////////////////////\
eb|-------------------------------------------------|
Bb|-------------------------------------------------|
F#|\11-11-11-11-11-11-11-11-11-11-11-11-11-11-11-11-|
C#|-------------------------------------------------|
Ab|\9--9--9--9--9--9--9--9--9--9--9--9--9--9--9--9--|
Eb|-------------------------------------------------|

    N.C.
eb|-------------------------------------------------|
Bb|-------------------------------------------------|
F#|-9--9--9--9--9--9--9--9--11-11-11-11-11-11-11-11-|
C#|-------------------------------------------------|
Ab|-7--7--7--7--7--7--7--7--9--9--9--9--9--9--9--9--|
Eb|-------------------------------------------------|
////////////////////////////////////////////////////\
eb|-------------------------------------------------|
Bb|-------------------------------------------------|
F#|-12-12-12-12-12-12-12-12-14-14-14-14-14-14-14-14-|
C#|-------------------------------------------------|
Ab|-10-10-10-10-10-10-10-10-12-12-12-12-12-12-12-12-|
Eb|-------------------------------------------------|

    N.C.
eb|-------------------------------------------------|
Bb|-------------------------------------------------|
F#|-12----12-12----12-12-12-12-------12----12-12-12-|
C#|-------------------------------------------------|
Ab|-10----10-10----10-10-10-10-------10----10-10-10-|
Eb|-------------------------------------------------|
////////////////////////////////////////////////////\
eb|-------------------------------------------------|
Bb|-12-12-12-12-12-12-12-12-12-12-12-12----12-12-12-|
F#|-------------------------------------------------|
C#|-9--9--9--9--9--9--9--9--9--9--9--9-----9--9--9--|
Ab|-------------------------------------------------|
Eb|-------------------------------------------------|

    N.C.
eb|-------------------------------------------------|
Bb|-------------------------------------------------|
F#|-14-14-14-14-14-14-14-14-14-14-14-14-14-14-14-14-|
C#|-------------------------------------------------|
Ab|-12-12-12-12-12-12-12-12-12-12-12-12-12-12-12-12-|
Eb|-------------------------------------------------|
////////////////////////////////////////////////////\
eb|-------------------------------------------------|
Bb|-12-12-12-12-12-12-12-12-13-13-13-13-13-13-13-13-|
F#|-------------------------------------------------|
C#|-9--9--9--9--9--9--9--9--10-10-10-10-10-10-10-10-|
Ab|-------------------------------------------------|
Eb|-------------------------------------------------|
[ Tab from: http://www.guitartabs.cc/tabs/w/weezer/only_in_dreams_tab_ver_3.html ]
    N.C.
eb|-------------------------------------------------|
Bb|-------------------------------------------------|
F#|-16-16-16-16-------16-------16-16-16----16-16-16-|
C#|-------------------------------------------------|
Ab|-14-14-14-14-------14-------14-14-14----14-14-14-|
Eb|-------------------------------------------------|
////////////////////////////////////////////////////\
eb|-------------------------------------------------|
Bb|-15-15-15-15-15-15-15-15-15-15-15-15-15-15-15-15-|
F#|-------------------------------------------------|
C#|-12-12-12-12-12-12-12-12-12-12-12-12-12-12-12-12-|
Ab|-------------------------------------------------|
Eb|-------------------------------------------------|

    N.C.
eb|-------------------------------------------------|
Bb|-------------------------15----15----15----15----|
F#|-16----17----17----17----------------------------|
C#|-------------------------12----12----12----12----|
Ab|-14----15----15----15----------------------------|
Eb|-------------------------------------------------|
////////////////////////////////////////////////////\
eb|-------------12-12-12-12-12-12-12-12-14-14-14-14-|
Bb|-15-15-15-15-------------------------------------|
F#|-------------9--9--9--9--9--9--9--9--11-11-11-11-|
C#|-12-12-12-12-------------------------------------|
Ab|-------------------------------------------------|
Eb|-------------------------------------------------|

    N.C.
eb|-------------------------------------------------|
Bb|-15-15-15-15-15-15-15-15-15-15-15-15-15-15-15-15/|
F#|-------------------------------------------------|
C#|-12-12-12-12-12-12-12-12-12-12-12-12-12-12-12-12/|
Ab|-------------------------------------------------|
Eb|-------------------------------------------------|
////////////////////////////////////////////////////\
eb|-14-14-14-14-14-14-14-14-14-14-14-14-14-14-14-14-|
Bb|-------------------------------------------------|
F#|-11-11-11-11-11-11-11-11-11-11-11-11-11-11-11-11-|
C#|-------------------------------------------------|
Ab|-------------------------------------------------|
Eb|-------------------------------------------------|

    N.C.
eb|-------------------------14-14-14-14-14-14-14-14-|
Bb|/17-17-17-17-17-17-17----------------------------|
F#|----------------------0--11-11-11-11-11-11-11-11-|
C#|/14-14-14-14-14-14-14-0--------------------------|
Ab|-------------------------------------------------|
Eb|-------------------------------------------------|
////////////////////////////////////////////////////\
eb|-14-14-14-14-14-14-14-14-14-14-14-14\12-12-12-12-|
Bb|-------------------------------------------------|
F#|-11-11-11-11-11-11-11-11-11-11-11-11\9--9--9--9--|
C#|-------------------------------------------------|
Ab|-------------------------------------------------|
Eb|-------------------------------------------------|

    N.C.
eb|-14-14-14-14-14-14-14-14\7--7--7--7--7--7--7--7//|
Bb|-------------------------------------------------|
F#|-11-11-11-11-11-11-11-11\4--4--4--4--4--4--4--4//|
C#|-------------------------------------------------|
Ab|-------------------------------------------------|
Eb|-------------------------------------------------|
////////////////////////////////////////////////////\
eb|-10-10-10-10-10-10-10-10/15-15-15-15-15-15-15-15-|
Bb|-------------------------------------------------|
F#|-7--7--7--7--7--7--7--7//12-12-12-12-12-12-12-12-|
C#|-------------------------------------------------|
Ab|-------------------------------------------------|
Eb|-------------------------------------------------|

    N.C.
eb|/14-14-14-14-14-14-14-14\7--7--7--7--7--7--7--7//|
Bb|-------------------------------------------------|
F#|/11-11-11-11-11-11-11-11\4--4--4--4--4--4--4--4//|
C#|-------------------------------------------------|
Ab|-------------------------------------------------|
Eb|-------------------------------------------------|
////////////////////////////////////////////////////\
eb|-15-15-15-15-15-15-15-15-14-14-14-14-14-14-14-14-|
Bb|-------------------------------------------------|
F#|-12-12-12-12-12-12-12-12-11-11-11-11-11-11-11-11-|
C#|-------------------------------------------------|
Ab|-------------------------------------------------|
Eb|-------------------------------------------------|

    N.C.
eb|/15-15-15-15-15-15-15-15-15-15-15-15-15-15-15-15-|
Bb|-------------------------------------------------|
F#|/12-12-12-12-12-12-12-12-12-12-12-12-12-12-12-12-|
C#|-------------------------------------------------|
Ab|-------------------------------------------------|
Eb|-------------------------------------------------|
////////////////////////////////////////////////////\
eb|-12-12-12-12-10-10-10-10-12-12-12-12-14-14-14-14-|
Bb|-------------------------------------------------|
F#|-9--9--9--9--7--7--7--7--9--9--9--9--11-11-11-11-|
C#|-------------------------------------------------|
Ab|-------------------------------------------------|
Eb|-------------------------------------------------|

    N.C.
eb|-15-15-15-15-15-15-15-15\10-10-10-10-10-10-10-10-|
Bb|-------------------------------------------------|
F#|-12-12-12-12-12-12-12-12\7--7--7--7--7--7--7--7--|
C#|-------------------------------------------------|
Ab|-------------------------------------------------|
Eb|-------------------------------------------------|
////////////////////////////////////////////////////\
eb|-12-12-12-12-10-10-10-10-12-12-12-12-14-14-14-14-|
Bb|-------------------------------------------------|
F#|-9--9--9--9--7--7--7--7--9--9--9--9--11-11-11-11-|
C#|-------------------------------------------------|
Ab|-------------------------------------------------|
Eb|-------------------------------------------------|

    N.C.
eb|-10-10-10-10-10-10-10-10-10-10-10-10-12-12-12-12-|
Bb|-------------------------------------------------|
F#|-7--7--7--7--7--7--7--7--7--7--7--7--9--9--9--9--|
C#|-------------------------------------------------|
Ab|-------------------------------------------------|
Eb|-------------------------------------------------|
////////////////////////////////////////////////////\
eb|-14-14-14-14-14-14-14-14-14-14-14-14-14-14-14-14-|
Bb|-------------------------------------------------|
F#|-11-11-11-11-11-11-11-11-11-11-11-11-11-11-11-11-|
C#|-------------------------------------------------|
Ab|-------------------------------------------------|
Eb|-------------------------------------------------|

    N.C.
eb|-14-14-14-14-14-14-14-14-14-14-14-14-14-14-14-0--|
Bb|----------------------------------------------0--|
F#|-11-11-11-11-11-11-11-11-11-11-11-11-11-11-11-0--|
C#|-------------------------------------------------|
Ab|-------------------------------------------------|
Eb|-------------------------------------------------|
////////////////////////////////////////////////////\
eb|-15-15-15-15-15-15-15-15-17-17-17-17-17-17-17-17-|
Bb|-------------------------------------------------|
F#|-12-12-12-12-12-12-12-12-14-14-14-14-14-14-14-14-|
C#|-------------------------------------------------|
Ab|-------------------------------------------------|
Eb|-------------------------------------------------|

    N.C.
eb|-14-14-14-14-15-15-15-15-14-14-14-14-15-15-15-15-|
Bb|-------------------------------------------------|
F#|-11-11-11-11-12-12-12-12-11-11-11-11-12-12-12-12-|
C#|-------------------------------------------------|
Ab|-------------------------------------------------|
Eb|-------------------------------------------------|
////////////////////////////////////////////////////\
eb|-15-15-15-15-15-15-15-15-15-15-15-15-15-15-15-15-|
Bb|-------------------------------------------------|
F#|-12-12-12-12-12-12-12-12-12-12-12-12-12-12-12-12-|
C#|-------------------------------------------------|
Ab|-------------------------------------------------|
Eb|-------------------------------------------------|

    N.C.
eb|-17-17-17-17-15-15-15-15-14-14-14-14-15-15-15-15-|
Bb|-------------------------------------------------|
F#|-14-14-14-14-12-12-12-12-11-11-11-11-12-12-12-12-|
C#|-------------------------------------------------|
Ab|-------------------------------------------------|
Eb|-------------------------------------------------|
////////////////////////////////////////////////////\
eb|-17-17-17-17-17-17-17-17-20-20-20-20-20-20-20-20-|
Bb|-------------------------------------------------|
F#|-14-14-14-14-14-14-14-14-17-17-17-17-17-17-17-17-|
C#|-------------------------------------------------|
Ab|-------------------------------------------------|
Eb|-------------------------------------------------|

    N.C.
eb|-17-17-17-17-15-15-15-15-15-15-15-15-15-15-15-15-|
Bb|-------------------------------------------------|
F#|-14-14-14-14-12-12-12-12-12-12-12-12-12-12-12-12-|
C#|-------------------------------------------------|
Ab|-------------------------------------------------|
Eb|-------------------------------------------------|
////////////////////////////////////////////////////\
eb|-19-19-19-19-19-19-19-19-19-19-19-19-19-19-19-19-|
Bb|-------------------------------------------------|
F#|-16-16-16-16-16-16-16-16-16-16-16-16-16-16-16-16-|
C#|-------------------------------------------------|
Ab|-------------------------------------------------|
Eb|-------------------------------------------------|

    N.C.
eb|-17-17-17-17-17-17-17-17-17-17-17-17-17-17-17-17/|
Bb|-------------------------------------------------|
F#|-14-14-14-14-14-14-14-14-14-14-14-14-14-14-14-14/|
C#|-------------------------------------------------|
Ab|-------------------------------------------------|
Eb|-------------------------------------------------|
////////////////////////////////////////////////////\
eb|-19-19-19-19/20-20-20-20/22-22-22-22-22-22-22-22-|
Bb|-------------------------------------------------|
F#|-16-16-16-16/17-17-17-17/19-19-19-19-19-19-19-19-|
C#|-------------------------------------------------|
Ab|-------------------------------------------------|
Eb|-------------------------------------------------|

    N.C.
eb|/19-19-19-19-19-19-19-19-19-19-19-19-19-19-19-19-|
Bb|-------------------------------------------------|
F#|/16-16-16-16-16-16-16-16-16-16-16-16-16-16-16-16-|
C#|-------------------------------------------------|
Ab|-------------------------------------------------|
Eb|-------------------------------------------------|
////////////////////////////////////////////////////\
eb|-22-22-22-22-22-22-22-22\15-15-15-15-17-17-19-19-|
Bb|-------------------------------------------------|
F#|-19-19-19-19-19-19-19-19\12-12-12-12-14-14-16-16-|
C#|-------------------------------------------------|
Ab|-------------------------------------------------|
Eb|-------------------------------------------------|

    N.C.
eb|-20-20-20-20-20-20-20-20-22-22-22-22-22-22-22-22-|
Bb|-------------------------------------------------|
F#|-17-17-17-17-17-17-17-17-19-19-19-19-19-19-19-19-|
C#|-------------------------------------------------|
Ab|-------------------------------------------------|
Eb|-------------------------------------------------|
////////////////////////////////////////////////////\
eb|-20-20-20-20-20-20-20-20\14-14-14-14-14-14-14-14-|
Bb|-------------------------------------------------|
F#|-17-17-17-17-17-17-17-17\11-11-11-11-11-11-11-11-|
C#|-------------------------------------------------|
Ab|-------------------------------------------------|
Eb|-------------------------------------------------|

    N.C.
eb|-22-22-22-22-22-22-22-22-22-22-22-22-22-22-22-22-|
Bb|-------------------------------------------------|
F#|-19-19-19-19-19-19-19-19-19-19-19-19-19-19-19-19-|
C#|-------------------------------------------------|
Ab|-------------------------------------------------|
Eb|-------------------------------------------------|
////////////////////////////////////////////////////\
eb|-15-15-15-15-15-15-15-15/20-20-20-20-19-19-17-17/|
Bb|-------------------------------------------------|
F#|-12-12-12-12-12-12-12-12/17-17-17-17-16-16-14-14/|
C#|-------------------------------------------------|
Ab|-------------------------------------------------|
Eb|-------------------------------------------------|

    N.C.
eb|-22-22-22-22-22-22-22-22-22-22-22-22-22-22-22-22-|
Bb|-------------------------------------------------|
F#|-19-19-19-19-19-19-19-19-19-19-19-19-19-19-19-19-|
C#|-------------------------------------------------|
Ab|-------------------------------------------------|
Eb|-------------------------------------------------|
////////////////////////////////////////////////////\
eb|/20-20-20-20-19-19-17-17/20-20-20-20-19-19-17-17/|
Bb|-------------------------------------------------|
F#|/17-17-17-17-16-16-14-14/17-17-17-17-16-16-14-14/|
C#|-------------------------------------------------|
Ab|-------------------------------------------------|
Eb|-------------------------------------------------|

    N.C.
eb|-22-22-22-22-22-22-22-22-22-22-22-22-22-22-22-22\|
Bb|-------------------------------------------------|
F#|-19-19-19-19-19-19-19-19-19-19-19-19-19-19-19-19\|
C#|-------------------------------------------------|
Ab|-------------------------------------------------|
Eb|-------------------------------------------------|
////////////////////////////////////////////////////\
eb|/22-22-22-22-22-22-22-22\15-15-15-15-15-15-15-15\|
Bb|-------------------------------------------------|
F#|/19-19-19-19-19-19-19-19\12-12-12-12-12-12-12-12\|
C#|-------------------------------------------------|
Ab|-------------------------------------------------|
Eb|-------------------------------------------------|

    N.C.
eb|\19-19-19-19-17-17-17-17-15-15-15-15-14-14-14-14-|
Bb|-------------------------------------------------|
F#|\16-16-16-16-14-14-14-14-12-12-12-12-11-11-11-11-|
C#|-------------------------------------------------|
Ab|-------------------------------------------------|
Eb|-------------------------------------------------|
////////////////////////////////////////////////////\
eb|\8--8--8--8--8--8--8--8//14-14-14-14-12-12-12-12-|
Bb|-------------------------------------------------|
F#|\5--5--5--5--5--5--5--5//11-11-11-11-9--9--9--9--|
C#|-------------------------------------------------|
Ab|-------------------------------------------------|
Eb|-------------------------------------------------|

    N.C.
eb|-15-15-15-15-15-15-15/22-22-22-22-22-22-22-22-22\|
Bb|-------------------------------------------------|
F#|-12-12-12-12-12-12-12/19-19-19-19-19-19-19-19-19\|
C#|-------------------------------------------------|
Ab|-------------------------------------------------|
Eb|-------------------------------------------------|
////////////////////////////////////////////////////\
eb|-10-10-10-10-10-10/15-15-15-15-15-15-15-15-15-15\|
Bb|-------------------------------------------------|
F#|-7--7--7--7--7--7//12-12-12-12-12-12-12-12-12-12\|
C#|-------------------------------------------------|
Ab|-------------------------------------------------|
Eb|-------------------------------------------------|

    N.C.
eb|\19-19-19-19-17-17-17-17-15-15-15-15-14-14-14-14-|
Bb|-------------------------------------------------|
F#|\16-16-16-16-14-14-14-14-12-12-12-12-11-11-11-11-|
C#|-------------------------------------------------|
Ab|-------------------------------------------------|
Eb|-------------------------------------------------|
////////////////////////////////////////////////////\
eb|\8--8--8--8--8--8--8--8//14-14-14-14-12-12-12-12-|
Bb|-------------------------------------------------|
F#|\5--5--5--5--5--5--5--5//11-11-11-11-9--9--9--9--|
C#|-------------------------------------------------|
Ab|-------------------------------------------------|
Eb|-------------------------------------------------|

    N.C.
eb|-15-15-15-15-14-14-14-14\10-10-10-10-10-10/14-14-|
Bb|-------------------------------------------------|
F#|-12-12-12-12-11-11-11-11\7--7--7--7--7--7//11-11-|
C#|-------------------------------------------------|
Ab|-------------------------------------------------|
Eb|-------------------------------------------------|
////////////////////////////////////////////////////\
eb|-10-10-10-10-10-10/15-15-15-15-15-15-15-15-15-15-|
Bb|-------------------------------------------------|
F#|-7--7--7--7--7--7//12-12-12-12-12-12-12-12-12-12-|
C#|-------------------------------------------------|
Ab|-------------------------------------------------|
Eb|-------------------------------------------------|

    N.C.
eb|-15-15-15-15-17-17-17-17-19-19-19-19-17-17-17-17-|
Bb|-------------------------------------------------|
F#|-12-12-12-12-14-14-14-14-16-16-16-16-14-14-14-14-|
C#|-------------------------------------------------|
Ab|-------------------------------------------------|
Eb|-------------------------------------------------|

    N.C.
eb|-15-15-15-15-15-15-15-15-15-15-15-15-15-15-------|
Bb|-------------------------------------------15----|
F#|-12-12-12-12-12-12-12-12-12-12-12-12-12-12-------|
C#|-------------------------------------------12----|
Ab|-------------------------------------------------|
Eb|-------------------------------------------------|
////////////////////////////////////////////////////\
eb|-15-15-15-15-15-15/18-18-18-18-18-18-------18-18-|
Bb|-------------------------------------16----------|
F#|-12-12-12-12-12-12/15-15-15-15-15-15-------15-15-|
C#|-------------------------------------------------|
Ab|-------------------------------------------------|
Eb|-------------------------------------------------|

    N.C.
eb|-18-18-18-18-18-18-18-18-18-18-18-18-18-18-18----|
Bb|-------------------------------------------------|
F#|-15-15-15-15-15-15-15-15-15-15-15-15-15-15-15----|
C#|-------------------------------------------------|
Ab|-------------------------------------------------|
Eb|-------------------------------------------------|
////////////////////////////////////////////////////\
eb|-19-19-19-19-19-19-19-19-19-19-19-19-19-19-19-19-|
Bb|-------------------------------------------------|
F#|-16-16-16-16-16-16-16-16-16-16-16-16-16-16-16-16-|
C#|-------------------------------------------------|
Ab|-------------------------------------------------|
Eb|-------------------------------------------------|

    G/B               Cadd9
eb|-15-15-15-15-15-15-14br-----12-------------------|
Bb|-------------------------------------------------|
F#|-12-12-12-12-12-12----------------15----12-------|
C#|-------------------------------------------14b14-|
Ab|-------------------------------------------------|
Eb|-------------------------------------------------|
////////////////////////////////////////////////////\
eb|-------------------------------------------------|
Bb|-12-12-12-12-12-12-------12-12-12----12-12-12-12-|
F#|-12-12-12-12-12-12-------12-12-12----12-12-12-12-|
C#|-------------------14-14----------14-------------|
Ab|-------------------------------------------------|
Eb|-------------------------------------------------|

    Asus4                  D7    D6    D7     D6
eb|----------------15-14brbr---12-------------------|
Bb|----------------------------------15p12----------|
F#|-12----12-12----------------------------15-14-12-|
C#|-------------------------------------------------|
Ab|-------------------------------------------------|
Eb|-------------------------------------------------|
////////////////////////////////////////////////////\
eb|-------------------------------------------------|
Bb|-12-12-12-12-12-12-13-13-15-15-13-13-12-12-------|
F#|-12-12-12-12-12-12-14-14-16-16-14-14-12-12-------|
C#|-------------------------------------------14-14-|
Ab|-------------------------------------------------|
Eb|-------------------------------------------------|

    G/B                     Cadd9
eb|-------17b------------17----15----14----12-------|
Bb|-------------------------------------------15-13-|
F#|-12----------------------------------------------|
C#|-------------------------------------------------|
Ab|-------------------------------------------------|
Eb|-------------------------------------------------|
////////////////////////////////////////////////////\
eb|-15-15-15-15-15-15-15-15-15-15-15-15-15-15----15-|
Bb|-------------------------------------------------|
F#|-12-12-12-12-12-12-12-12-12-12-12-12-12-12-------|
C#|-------------------------------------------14----|
Ab|-------------------------------------------------|
Eb|-------------------------------------------------|

    Asus4                   D7    D6    D7    D6
eb|----------17b------17-------15----14----12-------|
Bb|-12~~~~~~~------------------------------------15-|
F#|-------------------------------------------------|
C#|-------------------------------------------------|
Ab|-------------------------------------------------|
Eb|-------------------------------------------------|
////////////////////////////////////////////////////\
eb|-15-15-15-15-15----15-15/19-19-17-17-15-15-------|
Bb|-------------------------------------------------|
F#|-12-12-12-12-12----12-12/16-16-14-14-12-12-------|
C#|----------------14-------------------------14----|
Ab|-------------------------------------------------|
Eb|-------------------------------------------------|

    G/B                     Cadd9
eb|-------20b~~~~~~~~~~~~~~~~~-20----19-20--19------|
Bb|-15------------------------------------------20--|
F#|-------------------------------------------------|
C#|-------------------------------------------------|
Ab|-------------------------------------------------|
Eb|-------------------------------------------------|
////////////////////////////////////////////////////\
eb|-15-15-15-15-15-15-------15-15-15-15-15-15-15----|
Bb|-------------------------------------------------|
F#|-12-12-12-12-12-12-------12-12-12-12-12-12-12----|
C#|-------------------14-------------------------14-|
Ab|-------------------------------------------------|
Eb|-------------------------------------------------|

    Asus4                   D7    D6    D7    D6
eb|----------------------------19b------19----------|
Bb|-20-------19-------15----------------------15----|
F#|-------------------------------------------------|
C#|-------------------------------------------------|
Ab|-------------------------------------------------|
Eb|-------------------------------------------------|
////////////////////////////////////////////////////\
eb|-15-15-15-15-15-15-15/20----20-19----17----15----|
Bb|-------------------------------------------------|
F#|-12-12-12-12-12-12-12/17----17-16----14----12----|
C#|-------------------------------------------------|
Ab|-------------------------------------------------|
Eb|-------------------------------------------------|

    G/B                     Cadd9
eb|-------------------------------------------------|
Bb|-15----------------------------------------------|
F#|-------------------------------------------------|
C#|-------------------------------------------------|
Ab|-------------------------------------------------|
Eb|-------------------------------------------------|
////////////////////////////////////////////////////\
eb|-17/19-------------------------------------------|
Bb|-------------------------------------------------|
F#|-14/16-------------------------------------------|
C#|-------------------------------------------------|
Ab|-------------------------------------------------|
Eb|-------------------------------------------------|

    Asus4                   D7    D6    D7    D6    
eb|-------------------------------------------------|
Bb|-------------------------------------------------|
F#|-------------------------14-------(14)h16--------|
C#|-------------------------------------------------|
Ab|-------------------------------------------------|
Eb|-------------------------------------------------|

    G/B                     Cadd9
eb|-------------------------------------------------|
Bb|-------------------------------------------------|
F#|-------16----------------------------------------|
C#|-------------------------------------------------|
Ab|-------------------------------------------------|
Eb|-------------------------------------------------|

    Asus4                   D7    D6    D7    D6    
eb|-------------------------------------------------||
Bb|-------------------------------------------------||
F#|-------------------------------------------------||
C#|-------------------------------------------------||
Ab|-------------------------------------------------||
Eb|-------------------------------------------------||
Comments